30 Seconds To Mars – CONQUISTADOR

Share Button

 

 

30 Seconds To Mars – CONQUISTADOR

Toutes les tablatures sont ici  http://guitarepourdebutant.fr/tablatures-faciles/

 

 

E||--12--------------------------|-----------------------|
B||---8--------------------------|-----------------------|
G||------------------------------|-----------------------|
D||------------------------------|-----------------------|
A||------------------------------|-------6---4-6---------|
D||---0--------1s----13s----1----|--1---------------1----|

----------------------|-----------------------|-----------------------|
----------------------|-----------------------|-----------------------|
----------------------|-----------------------|-----------------------|
------------6----4----|-----------------------|-----------------------|
--4----6--------------|-------6---4-6---------|--4----6\--------------|
----------------------|--1---------------1----|-------------4~--------|

-----------------------|----------------------|-----------------------|
-----------------------|----------------------|-----------------------|
-----------------------|----------------------|-----------------------|
-----------------------|------------6----4----|-----------------------|
-------6---4-6---------|--4----6--------------|-------6---4-6---------|
--1---------------1----|----------------------|--1---------------1----|

-----------------------|-------|-------|-------|-------|-------|-------|-------|
-----------------------|-------|-------|-------|-------|-------|-------|-------|
-----------------------|-------|-------|-------|-------|-------|-------|-------|
-----------------------|-------|-------|-------|-------|-------|-------|-------|
--4----6\--------------|-------|-------|-------|-------|-------|-------|-------|
-------------4\--------|-------|-------|-------|-------|-------|-------|-------|

--------------------------------|--------------------------|
--------------------------------|--------------------------|
--------------------------------|--------------------------|
--4----4----4----6----6----6----|----------1----1---1---1--|
--4----4----4----6----6----6----|----------1----1---1---1--|
--4----4----4----6----6----6----|--\13\----1----1---1---1--|

--------------------------|--------------------------|------------------------|
--------------------------|--------------------------|------------------------|
--------------------------|--------------------------|------------------------|
----------1----1---1---1--|----------1----1---1---1--|--4---4---4--6---6---6--|
----------1----1---1---1--|----------1----1---1---1--|--4---4---4--6---6---6--|
--\13\----1----1---1---1--|--\13\----1----1---1---1--|--4---4---4--6---6---6--|

--------------------------|--------------------------|
--------------------------|--------------------------|
--------------------------|--------------------------|
----------1----1---1---1--|----------1----1---1---1--|
----------1----1---1---1--|----------1----1---1---1--|
--\13\----1----1---1---1--|--\13\----1----1---1---1--|

--------------------------|------------------------|-------|-------|-------|
--------------------------|------------------------|-------|-------|-------|
--------------------------|------------------------|-------|-------|-------|
----------1----1---1---1--|--4---4---4--6---6---6--|-------|-------|-------|
----------1----1---1---1--|--4---4---4--6---6---6--|-------|-------|-------|
--\13\----1----1---1---1--|--4---4---4--6---6---6--|-------|-------|-------|

-------|-------|-------|--------------------------------|
-------|-------|-------|--------------------------------|
-------|-------|-------|--------------------------------|
-------|-------|-------|--4----4----4----6----6----6----|
-------|-------|-------|--4----4----4----6----6----6----|
-------|-------|-------|--4----4----4----6----6----6----|

--------------------------|--------------------------|
--------------------------|--------------------------|
--------------------------|--------------------------|
----------1----1---1---1--|----------1----1---1---1--|
----------1----1---1---1--|----------1----1---1---1--|
--\13\----1----1---1---1--|--\13\----1----1---1---1--|

--------------------------|------------------------|--------------------------|
--------------------------|------------------------|--------------------------|
--------------------------|------------------------|--------------------------|
----------1----1---1---1--|--4---4---4--6---6---6--|----------1----1---1---1--|
----------1----1---1---1--|--4---4---4--6---6---6--|----------1----1---1---1--|
--\13\----1----1---1---1--|--4---4---4--6---6---6--|--\13\----1----1---1---1--|

--------------------------|--------------------------|------------------------|
--------------------------|--------------------------|------------------------|
--------------------------|--------------------------|------------------------|
----------1----1---1---1--|----------1----1---1---1--|--4---4---4--6---6---6--|
----------1----1---1---1--|----------1----1---1---1--|--4---4---4--6---6---6--|
--\13\----1----1---1---1--|--\13\----1----1---1---1--|--4---4---4--6---6---6--|

------------------------|---------------------------|------------------------|
------------------------|---------------------------|------------------------|
------------------------|---------------------------|------------------------|
--9---9---9--9---9---9--|--9---9---9--11---11---11--|--6---6---6--6---6---6--|
--9---9---9--9---9---9--|--9---9---9--11---11---11--|--6---6---6--6---6---6--|
--9---9---9--9---9---9--|--9---9---9--11---11---11--|--6---6---6--6---6---6--|

------------------------|------------------------|---------------------------|
------------------------|------------------------|---------------------------|
------------------------|------------------------|---------------------------|
--6---6---6--6---6---6--|--9---9---9--9---9---9--|--9---9---9--11---11---11--|
--6---6---6--6---6---6--|--9---9---9--9---9---9--|--9---9---9--11---11---11--|
--6---6---6--6---6---6--|--9---9---9--9---9---9--|--9---9---9--11---11---11--|

------------------------|------------------------|-----------------------|
------------------------|------------------------|-----------------------|
------------------------|------------------------|-----------------------|
--6---6---6--6---6---6--|--4---4---4--3---3---3--|-----------------------|
--6---6---6--6---6---6--|--4---4---4--3---3---3--|-------6---4-6---------|
--6---6---6--6---6---6--|--4---4---4--3---3---3--|--1---------------1----|

----------------------|-----------------------|-----------------------|
----------------------|-----------------------|-----------------------|
----------------------|-----------------------|-----------------------|
------------6----4----|-----------------------|-----------------------|
--4----6--------------|-------6---4-6---------|--4----6\--------------|
----------------------|--1---------------1----|-------------4~--------|

-----------------------|----------------------|-----------------------|
-----------------------|----------------------|-----------------------|
-----------------------|----------------------|-----------------------|
-----------------------|------------6----4----|-----------------------|
-------6---4-6---------|--4----6--------------|-------6---4-6---------|
--1---------------1----|----------------------|--1---------------1----|

-----------------------|-----------------------|----------------------|
-----------------------|-----------------------|----------------------|
-----------------------|-----------------------|----------------------|
-----------------------|-----------------------|------------6----4----|
--4----6\--------------|-------6---4-6---------|--4----6--------------|
-------------1---------|--1---------------1----|----------------------|

-----------------------|-----------------------|-----------------------|
-----------------------|-----------------------|-----------------------|
-----------------------|-----------------------|-----------------------|
-----------------------|-----------------------|-----------------------|
-------6---4-6---------|--4----6\--------------|-------6---4-6---------|
--1---------------1----|-------------4~--------|--1---------------1----|

----------------------|-----------------------|------------------------|
----------------------|-----------------------|------------------------|
----------------------|-----------------------|------------------------|
------------6----4----|-----------------------|------------------------|
--4----6--------------|-------6---4-6---------|--4----6\---------------|
----------------------|--1---------------1----|-------------4----Lb----|

-----------------------|----------------------|-----------------------|
-----------------------|----------------------|-----------------------|
-----------------------|----------------------|-----------------------|
-----------------------|------------6----4----|-----------------------|
-------6---4-6---------|--4----6--------------|-------6---4-6---------|
--1---------------1----|----------------------|--1---------------1----|

-----------------------|-----------------------|----------------------|
-----------------------|-----------------------|----------------------|
-----------------------|-----------------------|----------------------|
-----------------------|-----------------------|------------6----4----|
--4----6\--------------|-------6---4-6---------|--4----6--------------|
-------------4~--------|--1---------------1----|----------------------|

-----------------------|------------9--------|--------------------------|
-----------------------|---------------------|--------------------------|
-----------------------|---------------------|--------------------------|
-----------------------|---------------------|----------1----1---1---1--|
-------6---4-6---------|--4------------------|----------1----1---1---1--|
--1---------------1----|---------------------|--\13\----1----1---1---1--|

--------------------------|--------------------------|------------------------|
--------------------------|--------------------------|------------------------|
--------------------------|--------------------------|------------------------|
----------1----1---1---1--|----------1----1---1---1--|--4---4---4--6---6---6--|
----------1----1---1---1--|----------1----1---1---1--|--4---4---4--6---6---6--|
--\13\----1----1---1---1--|--\13\----1----1---1---1--|--4---4---4--6---6---6--|

--------------------------|--------------------------|
--------------------------|--------------------------|
--------------------------|--------------------------|
----------1----1---1---1--|----------1----1---1---1--|
----------1----1---1---1--|----------1----1---1---1--|
--\13\----1----1---1---1--|--\13\----1----1---1---1--|

--------------------------|------------------------|--------------------------|
--------------------------|------------------------|--------------------------|
--------------------------|------------------------|--------------------------|
----------1----1---1---1--|--4---4---4--6---6---6--|----------1----1---1---1--|
----------1----1---1---1--|--4---4---4--6---6---6--|----------1----1---1---1--|
--\13\----1----1---1---1--|--4---4---4--6---6---6--|--\13\----1----1---1---1--|

--------------------------|--------------------------|------------------------|
--------------------------|--------------------------|------------------------|
--------------------------|--------------------------|------------------------|
----------1----1---1---1--|----------1----1---1---1--|--4---4---4--6---6---6--|
----------1----1---1---1--|----------1----1---1---1--|--4---4---4--6---6---6--|
--\13\----1----1---1---1--|--\13\----1----1---1---1--|--4---4---4--6---6---6--|

------------------------|---------------------------|------------------------|
------------------------|---------------------------|------------------------|
------------------------|---------------------------|------------------------|
--9---9---9--9---9---9--|--9---9---9--11---11---11--|--6---6---6--6---6---6--|
--9---9---9--9---9---9--|--9---9---9--11---11---11--|--6---6---6--6---6---6--|
--9---9---9--9---9---9--|--9---9---9--11---11---11--|--6---6---6--6---6---6--|

------------------------|-----------------------|----------------------|
------------------------|-----------------------|----------------------|
------------------------|-----------------------|----------------------|
--4---4---4--3---3---3--|-----------------------|------------6----4----|
--4---4---4--3---3---3--|-------6---4-6---------|--4----6--------------|
--4---4---4--3---3---3--|--1---------------1----|----------------------|

 

Soyez le premier à commenter

Poster un Commentaire

Votre adresse de messagerie ne sera pas publiée.




Time limit is exhausted. Please reload CAPTCHA.