Airplane – Plain White T’s

Share Button
Imprimer cette tablature Imprimer cette tablature

Toutes les tablatures sont ici  http://guitarepourdebutant.fr/tablatures-faciles/

Tablature Airplane – Plain White T’s

 

e|----------------|----------------|----------------|----------------|
b|----------------|----------------|----------------|----------------|
g|3---------3-----|2---------2-----|3---------3-----|5---------5-----|
D|0-----0---0-----|------0---------|------0---------|------0---0-----|
A|----------------|----------------|----------------|----------------|
E|3---3---3---3---|2---2---2---2---|3---3---3---3---|5---5---5---5---|

  Bb               D7               Bb               Bm
e|----------------|----------------|----------------|----------------|
b|----------------|----------------|----------------|----------------|
g|7---------7-----|5---------5-----|7---------7-----|7---------7-----|
D|0-----0---------|0-----0---0-----|0-----0---------|------0---0-----|
A|----------------|----------------|----------------|----------------|
E|6---6---6---6---|5---5---5---5---|6---6---6---6---|7---7---7---7---|

e|----------------|----------------|----------------|----------------|
b|4---------4-----|3---------3-----|4---------4-----|3---------3-----|
g|------0---0-----|------0---0-----|0-----0---0-----|0-----0---0-----|
D|----------------|----------------|----------------|----------------|
A|3---3---3---3---|3---3---3---3---|3---3---3---3---|3---3---3---3---|
E|----------------|----------------|----------------|----------------|

e|----------------|----------------|----------------|----------------|
b|3---------3-----|1---------------|2---------2-----|1---------1-----|
g|------2---2-----|------3---2-----|------0---0-----|------2---------|
D|----------------|----------------|----------------|0---0---0---0---|
A|----------------|----------------|0---0---0-------|----------------|
E|2---2---2---2---|----3---3-------|----------------|----------------|

Chorus 1:

e|----------------|----------------|----------------|----------------|
b|4---------4-----|3---------3-----|4---------4-----|3---------3-----|
g|------0---0-----|------0---0-----|------0---0-----|------0---0-----|
D|----------------|----------------|----------------|----------------|
A|3---3---3---3---|2---2---2---2---|3---3---3---3---|2---2---2---2---|
E|----------------|----------------|----------------|----------------|

  Gm               Am               A                D
e|----------------|----------------|----------------|----------------|
b|3---------3-----|1---------1-----|2--------2------|2---------2-----|
g|0-----0---------|-------0--------|------0---------|------1---------|
D|----------------|----------------|----------------|0---0---0---0---|
A|1---1---1---1---|0---0---0---0---|0---0---0---0---|----------------|
E|----------------|----------------|----------------|----------------|

Chorus 2:

  Cm               G                Cm               G               
e|----------------|----------------|----------------|----------------|
b|4---------4-----|3---------3-----|4---------4-----|3---------3-----|
g|------0---0-----|------0---0-----|0-----0---0-----|0-----0---0-----|
D|----------------|----------------|----------------|----------------|
A|3---3---3---3---|2---2---2---2---|3---3---3---3---|2---2---2---2---|
E|----------------|----------------|----------------|----------------|

  Gm               Am               A7
e|----------------|----------------|----------------|----------------|
b|3---------3-----|1---------1-----|2--/--5--/--8---|----------------|
g|------0---------|------0---------|----------------|----------------|
D|----------------|----------------|----------------|----------------|
A|1---1---1---1---|0---0---0---0---|0--/--3--/--6---|----------------|
E|----------------|----------------|----------------|----------------|

  D7                                D7
e|2--/--5--/--8---|----------------|----------------|----------------|-----------------|
b|3-----7--/--10--|----------------|-------13-------|--------13------|-----------------|
g|2--/--7--/--11--|----------------|---14------14---|----14----------|-----------------|
D|----------------|----------------|0---------------|0---------------|-----------------|
A|----------------|----------------|----------------|----------------|-----------------|
E|----------------|----------------|----------------|----------------|-----------------|

Soyez le premier à commenter

Poster un Commentaire

Votre adresse de messagerie ne sera pas publiée.




Time limit is exhausted. Please reload CAPTCHA.