BB Brunes Dis moi

Share Button

BB Brunes Dis moi

 Toutes les tablatures sont ici  http://guitarepourdebutant.fr/tablatures-faciles/

---------------------------------------------------------   x4
---------------------------------------------------------
11-11--11----------7-7-9-----------------------------------
11-11--11-11-11-11—7-7-9-11-11-11---------------------------
-9--9---9-11-11-11—5-5-7-11-11-11---------------------------
------------9--9--9-------9—9--9----------------------------

-------------------------    
-------------------------
------------7-6-----------
--9---------7-6-----------
--9---------5-4-----------
--7----------------------

---------------------------------------------------------    x3
---------------------------------------------------------
11--11-------------7-7-9----------------------------------
11--11-11-11-11--11-7-7-9-11-11-11--------------------------
-9---9-11-11-11--11-5-5-7-11-11-11--------------------------
--------9--9--9---9-------9--9--9---------------------------

-------------------------    
-------------------------
------------7-6-----------
--9---------7-6-----------
--9---------5-4------------
--7----------------------

---------------------------------------------------------    
---------------------------------------------------------
---------------------------------------------------------
---------------------------------------------------------
--9--9-0--------7-7-0------------------------------------
---------9--9-0-------9-9-9-9-9-9-9----------------------------

---------------------------------------------------------    x3
---------------------------------------------------------
--11--11-0-----------7--7-9------------------------------
--11--11-0-11--11-0--7--7-9-11-11-11-11----------------------
---9---9-0-11--11-0--5--5-7-11-11-11-11----------------------
------------9---9-0---------9--9--9--9----------------------

-------------------------    
-------------------------
------------7-6-----------
--9---------7-6-----------
--9---------5-4-----------
--7----------------------

---------------------------------------------------------    x3
---------------------------------------------------------
11--11-------------7-7-9----------------------------------
11--11-11-11-11--11-7-7-9-11-11-11--------------------------
-9---9-11-11-11--11-5-5-7-11-11-11--------------------------
--------9--9--9---9-------9--9--9--------------------------

-------------------------    
-------------------------
------------7-6-----------
--9---------7-6-----------
--9---------5-4-----------
--7----------------------

------------------------9---|-------------------------    x2
--14-12--10--12--10—12-----|--14-12--10--12--10--7--7
----------------------------|-------------------------
----------------------------|-------------------------
----------------------------|-------------------------
----------------------------|-------------------------

---------------------------------|-------------------------    x2
--7--10—12-14-12--10—12-14-12--|--7--10—12-14-12--10--7-
---------------------------------|-------------------------
---------------------------------|-------------------------
---------------------------------|-------------------------
---------------------------------|-------------------------

------------------------9---|-------------------------    
--14-12--10--12--10--12----|--14-12--10--12--10--7--7 
----------------------------|-------------------------
----------------------------|-------------------------
----------------------------|-------------------------
----------------------------|-------------------------

---------------------------------------------------------    
---------------------------------------------------------
11--11-------------7-79----------------------------------
11--11-1111-11--11-7-79-11-1111--------------------------
-9---9-1111-11--11-5-57-11-1111--------------------------
--------9-9--9---9-------9--9-9--------------------------

--------------------------    
--------------------------
------------7-6-----------
--9---------7-6-----------
--9---------5-4-----------
--7-----------------------

---------------------------------------------------------    x7
---------------------------------------------------------
11--11-------------7-7-9----------------------------------
11--11-11-11-11--11-7-7-9-11-11-11--------------------------
-9---9-11-11-11--11-5-5-7-11-11-11--------------------------
--------9--9--9---9-------9--9--9--------------------------

-------------------------    
-------------------------
------------7-6-----------
--9---------7-6-----------
--9---------5-4-----------
--7----------------------

------
------
--11--
--11--
---9--
------