Beatles Yesterday

Share Button
Imprimer cette tablature Imprimer cette tablature

Toutes les tablatures sont ici  http://guitarepourdebutant.fr/tablatures-faciles/

Beatles Yesterday

E|-----1---1---1-------1---1---1---|-----1---1---1-------1---1---1---|-----1---1---1-------1---1---1---|
B|-----1---1---1-------1---1---1---|-----1---1---1-------1---1---1---|-----1---1---1-------1---1---1---|
G|---------------------------------|---------------------------------|---------------------------------|
D|-----3---3---3-------3---3---3---|-----3---3---3-------3---3---3---|-----3---3---3-------3---3---3---|
A|---------------------------------|---------------------------------|---------------------------------|
E|-1---------------1---------------|-1---------------1---------------|-1---------------1---------------|


E|-----0---0---0-------0---0---0---|---------------------------------|---------------------0---0---0---|
B|-----0---0---0-------------------|-----3---3---3-------3-------3---|-----3---3---3-------------------|
G|-----0---0---0-------0---0---0---|-----2---2---2-------2-------2---|-----3---3---3-------3---3---3---|
D|---------------------7---7---7---|-0---3---3---3---0---3-------3---|-----3---3---3-------5---5---5---|
A|-----------------0---------------|-------------------------3-------|-1---------------3---------------|
E|-0-------------------------------|---------------------------------|---------------------------------|


E|-----1---1---1-------1-------1---|---------------------------------|------1---1----1---1---1---|
B|-----1---1---1-------1-------1---|---------------------3---3-------|-3----1---1----1---1---1---|
G|---------------------------------|-----5---5---5-------4---4-------|-3-------------------------|
D|-----3---3---3-------3-------3---|-----3---3---3-------5---5-------|-3----3---3----3---3---3---|
A|---------------------------------|-----5---5---5-------------------|-1-------------------------|
E|-1---------------1-------0-------|-3---------------3-----------3---|------1---1--------1-------|


E|-----1---1---1-------1---1---1---|-----0---0---0-------0---0---0---|---------------------------------|
B|-----1---1---1-------1---1---1---|-----0---0---0-------------------|-----3---3---3-------3-------3---|
G|---------------------------------|-----0---0---0-------0---0---0---|-----2---2---2-------2-------2---|
D|-----3---3---3-------3---3---3---|---------------------7---7---7---|-0---3---3---3---0---3-------3---|
A|---------------------------------|-----------------0---------------|-------------------------3-------|
E|-1---------------1---------------|-0-------------------------------|---------------------------------|


E|---------------------0---0---0---|-----1---1---1-------1-------1---|---------------------------------|
B|-----3---3---3-------------------|-----1---1---1-------1-------1---|---------------------3---3-------|
G|-----3---3---3-------3---3---3---|---------------------------------|-----5---5---5-------4---4-------|
D|-----3---3---3-------5---5---5---|-----3---3---3-------3-------3---|-----3---3---3-------5---5-------|
A|-1---------------3---------------|---------------------------------|-----5---5---5-------------------|
E|---------------------------------|-1---------------1-------0-------|-3---------------3-----------3---|


E|------1---1----1---1---1---|---------------------0---0---0---|------0----1----0-------|
B|-3----1---1----1---1---1---|-----3---3---3-------------------|-3------------------3---|
G|-3-------------------------|-----2---2---2-------0---0---0---|------------------------|
D|-3----3---3----3---3---3---|-----5---5---5-------7---7---7---|-0----------------------|
A|-1-------------------------|-0---------------0---------------|------3----1----0-------|
E|------1---1--------1-------|---------------------------------|------------------------|


E|-----0---0---0-------0---0---0---|-----1---1---1-------1-------1---|---------------------0---0---0---|
B|---------------------------------|-----1---1---1-------1-------1---|-----3---3---3-------------------|
G|-----3---3---3-------3---3---3---|---------------------------------|-----2---2---2-------0---0---0---|
D|-----5---5---5-------5---5---5---|-----3---3---3-------3-------3---|-----5---5---5-------7---7---7---|
A|-----------------3---------------|---------------------------------|-0---------------0---------------|
E|-3-------------------------------|-1---------------1-------1-------|---------------------------------|


E|------0----1----0-------|-----0---0---0-------0---0---0---|-1------|-----1---1---1-------1---1---1---|
B|-3------------------3---|---------------------------------|-1------|-----1---1---1-------1---1---1---|
G|------------------------|-----3---3---3-------3---3---3---|--------|---------------------------------|
D|-0----------------------|-----5---5---5-------5---5---5---|-3------|-----3---3---3-------3---3---3---|
A|------3----1----0-------|-----------------3---------------|--------|---------------------------------|
E|------------------------|-3-------------------------------|-1------|-1---------------1---------------|


E|-----0---0---0-------0---0---0---|---------------------------------|---------------------0---0---0---|
B|-----0---0---0-------------------|-----3---3---3-------3-------3---|-----3---3---3-------------------|
G|-----0---0---0-------0---0---0---|-----2---2---2-------2-------2---|-----3---3---3-------3---3---3---|
D|---------------------7---7---7---|-0---3---3---3---0---3-------3---|-----3---3---3-------5---5---5---|
A|-----------------0---------------|-------------------------3-------|-1---------------3---------------|
E|-0-------------------------------|---------------------------------|---------------------------------|


E|-----1---1---1-------1-------1---|---------------------------------|------1---1----1---1---1---|
B|-----1---1---1-------1-------1---|---------------------3---3-------|-3----1---1----1---1---1---|
G|---------------------------------|-----5---5---5-------4---4-------|-3-------------------------|
D|-----3---3---3-------3-------3---|-----3---3---3-------5---5-------|-3----3---3----3---3---3---|
A|---------------------------------|-----5---5---5-------------------|-1-------------------------|
E|-1---------------1-------0-------|-3---------------3-----------3---|------1---1--------1-------|


E|---------------------0---0---0---|------0----1----0-------|-----0---0---0-------0---0---0---|
B|-----3---3---3-------------------|-3------------------3---|---------------------------------|
G|-----2---2---2-------0---0---0---|------------------------|-----3---3---3-------3---3---3---|
D|-----5---5---5-------7---7---7---|-0----------------------|-----5---5---5-------5---5---5---|
A|-0---------------0---------------|------3----1----0-------|-----------------3---------------|
E|---------------------------------|------------------------|-3-------------------------------|


E|-----1---1---1-------1-------1---|---------------------0---0---0---|------0----1----0-------|
B|-----1---1---1-------1-------1---|-----3---3---3-------------------|-3------------------3---|
G|---------------------------------|-----2---2---2-------0---0---0---|------------------------|
D|-----3---3---3-------3-------3---|-----5---5---5-------7---7---7---|-0----------------------|
A|---------------------------------|-0---------------0---------------|------3----1----0-------|
E|-1---------------1-------1-------|---------------------------------|------------------------|


E|-----0---0---0-------0---0---0---|-1------|-----1---1---1-------1---1---1---|-----0---0---0-------0---0---0---|
B|---------------------------------|-1------|-----1---1---1-------1---1---1---|-----0---0---0-------------------|
G|-----3---3---3-------3---3---3---|--------|---------------------------------|-----0---0---0-------0---0---0---|
D|-----5---5---5-------5---5---5---|-3------|-----3---3---3-------3---3---3---|---------------------7---7---7---|
A|-----------------3---------------|--------|---------------------------------|-----------------0---------------|
E|-3-------------------------------|-1------|-1---------------1---------------|-0-------------------------------|


E|---------------------------------|---------------------0---0---0---|-----1---1---1-------1-------1---|
B|-----3---3---3-------3-------3---|-----3---3---3-------------------|-----1---1---1-------1-------1---|
G|-----2---2---2-------2-------2---|-----3---3---3-------3---3---3---|---------------------------------|
D|-0---3---3---3---0---3-------3---|-----3---3---3-------5---5---5---|-----3---3---3-------3-------3---|
A|-------------------------3-------|-1---------------3---------------|---------------------------------|
E|---------------------------------|---------------------------------|-1---------------1-------0-------|


E|---------------------------------|------1---1----1---1---1---|-1---1---1---1---1---1---1---1---|
B|---------------------3---3-------|-3----1---1----1---1---1---|-1---1---1---1---0---0---0---0---|
G|-----5---5---5-------4---4-------|-3-------------------------|---------------------------------|
D|-----3---3---3-------5---5-------|-3----3---3----3---3---3---|-3---3---3---3---3---3---3---3---|
A|-----5---5---5-------------------|-1-------------------------|---------------------------------|
E|-3---------------3-----------3---|------1---1--------1-------|---------------------------------|


E|-1----1---1-----1---|-1-----1----1--------|
B|------1---1-----1---|-1-----1----1--------|
G|-3------------------|---------------------|
D|-3----3---3-----3---|-3-----3----3--------|
A|--------------------|---------------------|
E|------1---1-----1---|-1-----1----1--------|

Soyez le premier à commenter

Poster un Commentaire

Votre adresse de messagerie ne sera pas publiée.




Time limit is exhausted. Please reload CAPTCHA.