Ben Harper – Alone

Share Button

 

 

Alone

Ben Harper

  
Toutes les tablatures sont ici  http://guitarepourdebutant.fr/tablatures-faciles/

e-----------------------------------------------------------------------
B-----------------------------------------------------------------------
G----2-2-2---0-0-0----------0-0-0------0-0-0-0--0-0---------------------
D--------------------4-4-4-----------------------------4-4-4-4---4-4----
A------------------------------------3---------3-----2---------2--------
E--0-------0-------0------0---------------------------------------------

e-------------------------------------------
B-------------------------------------------
G---0-0-0-0--0-0----------------------------
D------------------4-4-4-4---4-4------------
A--3-------3-----2---------2----------------
E-------------------------------------------

e-------------------------------------------
B-----------------------------0-0-0---------
G------------0-0-0--------------------------
D----2-2-2-----------2-2-2------------------
A----------3------0-------------------------
E--0----------------------3-----------------

e----------------------------------------------------
B----------------------------------------------------
G------------0-0-0-----------------------------------
D----2-2-2-----------2-2-2-2---2-2----2-2-2-2---2-2--
A----------3------0----------0------0---------0------
E--0-------------------------------------------------

Soyez le premier à commenter

Poster un Commentaire

Votre adresse de messagerie ne sera pas publiée.




Time limit is exhausted. Please reload CAPTCHA.