Bill Deraime Babylone tu déconnes

Share Button

 Toutes les tablatures sont ici  http://guitarepourdebutant.fr/tablatures-faciles/

 

E||--5--------5--------5-----|--7--------7--------7-----|
B||--5--------5--------5-----|--8--------8--------8-----|
G||--5-----------------------|--9-----------------------|
D||--7-----7--------7--------|--9-----9--------9--------|
A||--7--------------------7--|--7--------------------7--|
E||-----5--------5-----------|-----7--------7-----------|

--5--------5--------5-----|--7--------7--------7-----|
--5--------5--------5-----|--9--------8--------8-----|
--5-----------------------|--9-----------------------|
--7-----7--------7--------|--9-----9--------9--------|
--7--------------------7--|--7--------------------7--|
-----5--------5-----------|-----7--------7-----------|

--7--6--5-----5-----5--5--|--5--------5--------5-----|
--8--7--6-----6-----6--6--|--5--------5--------5-----|
--9--8--7--7-----------7--|--5-----------------------|
--9--8--7--------7-----7--|--7-----7--------7--------|
--------------------------|-----------------------7--|
--------------------------|-----5--------5-----------|

--5--------5--------5--5--|--0-----------0--0--0--0--||
--6--------6--------6--6--|--5-----------5--5--5--8--||
--7-----7-----------7-----|--7-----------7--7--7--7--||
--7--------------7--4-----|--6--------6--------6--6--||
--------------------------|--7-----7-----------------||
-----5--------5-----------|-----0--------------------||