Black Sabbath – Iron Man

Share Button

 

Black Sabbath – Iron Man

Toutes les tablatures sont ici  http://guitarepourdebutant.fr/tablatures-faciles/
Imprimer cette tablature Imprimer cette tablature

|------------------------------------------    
|------------------------------------------        
|------------------------------------------   
|----7--7/9-9--12\11-12\11-12\11--7-7/9-9--               
|-9--5--5/7-7--10\9--10\9--10\9---5-5/7-7--
|-7----------------------------------------répéter une fois
|------------------------------------------
|------------------------------------------
|------------------------------------------
|------------------------------------------
|----5--5h7--7--10\9-10\9-10\9--5--5h7--7--
|-7----------------------------------------

|------------------------------------------
|------------------------------------------
|------------------------------------------
|------------------------------------------
|----5--5h7--7--10\9-10\9-10\9--5--5h7--7--
|-7----------------------------------------

* 1er riff
|------------------------------------------------------
|------------------------------------------------------
|------------------------------------------------------
|------------------------------------------------------
|-----5-------------------------5----------------------
|-7-7---7-6-5-5-5-0h4-5-5-6-7-7---7-6-5-5-5-0h4-5-5-6--

*fin du 1er riff
|-----------------
|-----------------
|-----------------
|-----------------
|-----5-----------
|-7-7---7-6-5-5-5-

|------------------------------------------
|------------------------------------------
|------------------------------------------
|------------------------------------------
|----5--5h7--7--10\9-10\9-10\9--5--5h7--7--
|-7----------------------------------------

|----------------------------------------------------
|----------------------------------------------------
|----------------------------------------------------
|-9------------------7-------------------------------
|-7------------------5-------------------------------
|----------------------------------------------------

|------------------------------------------------------
|------------------------------------------------------
|------------------------------------------------------
|---------------------7-8-9----------------------7-8-9-
|-9--9-------7--7-8-9--------9--9-------7--7-8-9-------
|-7--7--7-10-----------------7--7--7-10----------------

|------------------------------------------
|------------------------------------------
|------------------------------------------
|------------------------------------------
|----5--5h7--7--10\9-10\9-10\9--5--5h7--7--
|-7----------------------------------------

|---------------------------------------------
|---------------------------------------------
|---------------------------------------------
|-11-9-------------------11-9-----------------
|------11-10-9-7--------------11-10-9-7-------
|----------------7-7/9-9----------------7-7h9-

|----------------------------------------------------------
|----------------------------------------------------------
|----------------------------------9-9---------9-9---------
|-------------------------9-9-9h11-----11p9--------11p9----
|-----7h9-9p7----7h9-9/11-------------------11----------11-
|-7h9---------9h-------------------------------------------

|--------------9-------------------------------------------
|-----------/9---12-9-----------------------9-12p9----9----
|---------------------11-9-9-----------9h11--------11------
|-9h11-11--------------------11-9-9h11---------------------
|----------------------------------------------------------
|----------------------------------------------------------

|------------------------9--------/14-14-14-14p12----------
|-12p9----9-12p9----9-12---12-9-9-----------------14h-14---
|------11--------11----------------------------------------
|----------------------------------------------------------
|----------------------------------------------------------
|----------------------------------------------------------

|--------9-9-----------------------------------------------
|-12-14------12p9-----9-12-12p9----------------------------
|-----------------11h-----------11h-11p9-----9-9-----------
|----------------------------------------11h-----11p9------
|-----------------------------------------------------11---
|----------------------------------------------------------

|----------------------------------------------------------
|----------------------------------------------------------
|------9-9---------------9---------------------------------
|-9h11-----11p9-----9h11---9-9h11-9h11-9h11-9h11-9h11-11---
|---------------11h----------------------------------------
|----------------------------------------------------------

|----------------------------------------------------------
|----------------------------------------------------------
|----------------------------------------------------------
|-9h11-9h11-9h11-9h11-9h11-11-11-9-----------------11-9----
|----------------------------------11-10-9-7------------11-
|--------------------------------------------7-7/9---------

|--------------
|--------------
|--------------
|--------------
|-10-9-7-------
|--------7-7/9-

|------------------------------------------------------
|------------------------------------------------------
|------------------------------------------------------
|---------------------7-8-9----------------------7-8-9-
|-9--9-------7--7-8-9--------9--9-------7--7-8-9-------
|-7--7--7-10-----------------7--7--7-10----------------

|------------------------------------------
|------------------------------------------
|------------------------------------------
|------------------------------------------
|----5--5h7--7--10\9-10\9-10\9--5--5h7--7--
|-7----------------------------------------

En poursuivant votre navigation sur ce site, vous acceptez l'utilisation de cookies ou autres traceurs pour vous proposer des publicités ciblées, adaptées à vos centres d'intérêts, améliorer le fonctionnement du site et réaliser des statistiques de visites. Pour en savoir plus et paramétrer les cookies, cliquez ici. Plus d'info

Les paramètres des cookies sur ce site sont définis sur « accepter les cookies » pour vous offrir la meilleure expérience de navigation possible. Si vous continuez à utiliser ce site sans changer vos paramètres de cookies ou si vous cliquez sur "Accepter" ci-dessous, vous consentez à cela.

Fermer