Archives

Liens commerciaux

Bob Marley : No woman no cry

Share Button
Toutes les tablatures sont ici  http://guitarepourdebutant.fr/tablatures-faciles/
Imprimer cette tablature Imprimer cette tablature
Bob Marley :  No woman no cry
E||----------------------||---------------------------|
B||----------------------||---------1-----------0-----|
G||----------------------||*-----0-----0-----0-----0--|
D||----------------------||*--------------------------|
A||-------------0--2-----||---3-----------2-----------|
E||----------3--------3--||---------------------------|

-------------------------|--------------------------|
--------1----------1-----|--------1-----------------|
-----2----------2-----2--|-----0-----0--2-----------|
-------------------------|--------------3--2--0-----|
--0----------------------|--3--------------------3--|
-----------1-------------|--------------------------|

-------------3--1--0------||---------------------------|
-------1--------------3---||---------1-----0--1--0-----|
----0-----0--------------*||*-----------------------2--|
-------------------------*||*-----2-----2--------------|
----------------0--2------||---3-----------2-----------|
-------------3--------3---||---------------------------|

-------------------------|--------0-----1--0--------|
-------------------1-----|--------------------3--1--|
----------------2-----2--|-----0-----0--2-----------|
-----2-------------------|--------------3-----------|
--0----------------------|--3--------------------3--|
--------0--1-------------|--------------------------|

--------------------------||--------0--0--3--3--0-----|
--------------------------||--------------------------|
-------0-----0-----------*||-----0-----------------0--|
----2-----2--------------*||--------------------------|
----------------0--2------||--3-----------2-----------|
-------------3--------3---||--------------------------|

--0-0-0-0------------------|--------0-0-0-0----0--------|
-------------1-------------|----------------3--------0--|
----------------2----------|-----0----------------0-----|
----------2-------------3--|----------------------------|
--0------------------------|--3-------------2-----------|
-------------0--1----1-----|----------------------------|

--------------------------|--------0-0-0-0-0--3--0--1--|
--3--1--------------------|----------------------------|
--------------------------|-----0----------0-----------|
--------2--------3--2--0--|----------------------------|
--0-----------------------|--3-------------2-----------|
-----------0--1-----------|----------------------------|

--3--0--------------------|--------0--0--0--0--1--0--|
--------1-----------1--3--|--------------------------|
-----------------0--------|-----0--------0-----------|
--------2-----------------|--------------------------|
--0-----------------------|--3-----------2-----------|
-----------0--1-----------|--------------------------|

--------------------------|-----------0--3--3--3--0--|
--3--1--------------------|--------1-----------------|
--------------------------|-----0--------0-----------|
--------2--------3--3--0--|--------------------------|
--0-----------------------|--3-----------2-----------|
-----------0--1-----------|--------------------------|

-----3--3--0--------------|-----------0-----------0--|
--1-----------1-----------|--------1-----3-----1-----|
--------------------------|-----0-----------0--------|
--------------------------|--------------------------|
--0-----------------0--2--|--3-----------2-----------|
-----------0--1--1--------|--------------------------|

--------------------------|-----0--3--3--3--0-----0--|
--------1-----------------|--------------------------|
-----2--------------------|--------------------0-----|
--------------------------|--------------------------|
--0-----------------0--2--|--3-----------2-----------|
-----------0--1--1--------|--------------------------|

--3--0--3--0--------------|-----------0-----0--1--0--|
--------------1-----------|--------1-----3-----------|
--------------------------|-----0--------0-----------|
--------------------------|--------------------------|
--0--------------0-----0--|--3-----------2-----------|
-----------0--1-----1-----|--------------------------|

--------------------------|--------------------------|-------------------------|
--0--1--------------------|--------1-----0--1--0--0--|-------------------1-----|
--------------------------|--------------0-----------|--2-------------2-----2--|
--------2--------3--------|-----2-----2--------------|-----2-------------------|
--0-----------------0--2--|--3-----------2-----------|--0----------------------|
-----------0--1-----------|--------------------------|--------0--1-------------|

--------0-----1--0--------|-------------------------|
--------1-----------3--1--|-------------------------|
-----0-----0--2-----------|-------0-----0-----------|
--------------3--------2--|----2-----2--------------|
--3--------------------3--|----------------0--2-----|
--------------------------|-------------3--------3--|

-----------3-----1-1-0-----|-----------1--------------|
--------1---------------3--|--------1-----1-----------|
-----0--------0------------|-----2--------------------|
---------------------------|--------------3-----------|
--3-----------2------------|--0--------------0--0--2--|
---------------------------|--------------------------|

--------0-----1--0--------|-------------------------|--------0--0--3--3--0-----|
--------1-----------3--1--|-------------------------|--------------------------|
-----0-----0--2-----------|-------0-----0-----------|-----0-----------------0--|
--------------3--------2--|----2-----2--------------|--------------------------|
--3--------------------3--|----------------0--2-----|--3-----------2-----------|
--------------------------|-------------3--------3--|--------------------------|

--0-0-0-0------------------|--------0-0-0-0----0--------|
-------------1-------------|----------------3--------0--|
----------------2----------|-----0----------------0-----|
----------2-------------3--|----------------------------|
--0------------------------|--3-------------2-----------|
-------------0--1----1-----|----------------------------|

--------------------------|--------0-0-0-0-0--3--0--1--|
--3--1--------------------|----------------------------|
--------------------------|-----0----------0-----------|
--------2--------3--2--0--|----------------------------|
--0-----------------------|--3-------------2-----------|
-----------0--1-----------|----------------------------|

--3--0--------------------|--------0--0--0--0--1--0--|
--------1-----------1--3--|--------------------------|
-----------------0--------|-----0--------0-----------|
--------2-----------------|--------------------------|
--0-----------------------|--3-----------2-----------|
-----------0--1-----------|--------------------------|

--------------------------|-----------0--3--3--3--0--|
--3--1--------------------|--------1-----------------|
--------------------------|-----0--------0-----------|
--------2--------3--3--0--|--------------------------|
--0-----------------------|--3-----------2-----------|
-----------0--1-----------|--------------------------|

-----3--3--0--------------|-----------0-----------0--|
--1-----------1-----------|--------1-----3-----1-----|
--------------------------|-----0-----------0--------|
--------------------------|--------------------------|
--0-----------------0--2--|--3-----------2-----------|
-----------0--1--1--------|--------------------------|

--------------------------|-----0--3--3--3--0-----0--|
--------1-----------------|--------------------------|
-----2--------------------|--------------------0-----|
--------------------------|--------------------------|
--0-----------------0--2--|--3-----------2-----------|
-----------0--1--1--------|--------------------------|

--3--0--3--0--------------|-----------0-----0--1--0--|
--------------1-----------|--------1-----3-----------|
--------------------------|-----0--------0-----------|
--------------------------|--------------------------|
--0--------------0-----0--|--3-----------2-----------|
-----------0--1-----1-----|--------------------------|

--------------------------|--------------------------|-------------------------|
--0--1--------------------|--------1-----0--1--0--0--|-------------------1-----|
--------------------------|--------------0-----------|--2-------------2-----2--|
--------2--------3--------|-----2-----2--------------|-----2-------------------|
--0-----------------0--2--|--3-----------2-----------|--0----------------------|
-----------0--1-----------|--------------------------|--------0--1-------------|

--------0-----1--0--------|-------------------------|
--------1-----------3--1--|-------------------------|
-----0-----0--2-----------|-------0-----0-----------|
--------------3--------2--|----2-----2--------------|
--3--------------------3--|----------------0--2-----|
--------------------------|-------------3--------3--|

-----------3-----1-1-0-----|-----------1--------------|
--------1---------------3--|--------1-----1-----------|
-----0--------0------------|-----2--------------------|
---------------------------|--------------3-----------|
--3-----------2------------|--0--------------0--0--2--|
---------------------------|--------------------------|

--------0-----1--0--------|-------------------------|
--------1-----------3--1--|-------------------------|
-----0-----0--2-----------|-------0-----0-----------|
--------------3--------2--|----2-----2--------------|
--3--------------------3--|----------------0--2-----|
--------------------------|-------------3--------3--|

----------------------0-----|----------------------0-----|
-----1-1-1------1--1--------|-----1-1-1------1--1--------|
--0---------2-0-0-----------|--2---------2-0-2-----------|
----------------------------|----------------3-----------|
--3-------------2--------2--|--0-------------------------|
----------------------------|-------------------------3--|

----------------------0-----|----------------------0-----|
-----1-1-1------1--1--------|-----1-1-1------1--1--------|
--0---------2-0-0-----------|--2---------2-0-2-----------|
----------------------------|----------------3-----------|
--3-------------2--------2--|--0-------------------------|
----------------------------|-------------------------3--|

-----0-0-0--0-0-------0-----|----------------0-----------|
----------------3--3--------|-----1-1-1---------1--------|
--0-------------0-----------|--2---------2-0-------0-----|
----------------------------|----------------3-----------|
--3-------------2--------2--|--0-------------------------|
----------------------------|-------------------------3--|

-----0-0-0--0-0-3--3--0-----|----------------0-----------|
-------------------------3--|-----1-1-1--1-3----1--3--1--|
--0-------------0-----------|--2-------------2-----------|
----------------------------|----------------3-----------|
--3-------------2-----------|--0-------------------------|
----------------------------|----------------------------|

--0--1--3--------------------|-------------------------|
-----------1-----------0-----|--------1----------1-----|
--0-----------0-----0-----0--|-----2----------2-----2--|
-----------------------------|-------------------------|
--3--------------2-----------|--0----------------------|
-----------------------------|-----------1-------------|

--------0-----1--0--------|-------------------------|
--------1-----------3--1--|-------------------------|
-----0-----0--2-----------|-------0-----0-----------|
--------------3--------2--|----2-----2--------------|
--3--------------------3--|----------------0--2-----|
--------------------------|-------------3--------3--|

--------0-0-0-0-------------|-------------------------|
----------------3--0--------|--1--1--1--1-------------|
-----0----------------0-----|--2--------2-------------|
-------------------------0--|-----------3----3--2--0--|
--3-------------2-----------|--0----------------------|
----------------------------|-------------------------|

--------0-----1--0--------|----------------------|----||
--------1-----------3--1--|----------------------|----||
-----0-----0--2-----------|-------0--------------|----||
--------------3--------2--|----2-----2-----------|----||
--3--------------------3--|-------------3--------|----||
--------------------------|----------------------|----||