Bruno Mars – The Lazy Song

Share Button

The Lazy Song – Bruno Mars

 

Toutes les tablatures sont ici  http://guitarepourdebutant.fr/tablatures-faciles/

G|------|
D|------|
A|------|
E|-3/---|



G|-------------------------------|-------------------------------|
D|-------------------------------|--------------------------6-9--|
A|--------9-9--9-7-7--9-7-7-6----|--------9-9--9-7-7--9-7-7------|
E|-7-7--7---------------------9--|-7-7--7------------------------|



G|-------------------------------|-------------------------------|
D|-------------------------------|-------------------------------|
A|--------9-9--9-7-7--9-7-7-6----|----------6-6------7-7------7--|
E|-7-7--7---------------------9--|-7-7--7-9------7-9--------7----|

G|--------|
D|--------|
A|--------|
E|-3-5/---|

G|-------------------------------|-------------------------------|
D|-------------------------------|-------------------------------|
A|--------9-9--9-7-7--9-7-7-6----|--------9-9--9-7-7--9-7-7-6-7--|
E|-7-7--7---------------------9--|-7-7--7------------------------|

G|-------------------------------------------------|
D|-----11h13-11---------11/13--------14-12---------|
A|-----------------------------------------14------|
E|-9-9-----------11-11---------12-12-----------14--|

G|-------------------------------|----------------------------------|
D|-------------------------------|----------------------------------|
A|--------9-9--9-7-7--9-7-7-6----|--------9-9--9-7-7--9-7-7-6-------|
E|-7-7--7---------------------9--|-7-7--7---------------------9-7-/-|

G|------|-------------------------------|-------------------------------|
D|------|-------------------------------|-------------------------------|
A|------|--------9-9--9-7-7--9-7-7-6----|--------9-9--9-7-7--9-7-7-6-7--|
E|-3-5/-|-7-7--7---------------------9--|-7-7--7------------------------|

G|-------------------------------|-------------------------|
D|-------------------------------|-------------------------|
A|--------9-9--9-7-7--9-7-7-6----|----------6-6------7-7-7-|
E|-7-7--7---------------------9--|-7-7--7-9------7-9-------|

G|-----------------------------|-------------------------------|
D|-----------------------------|-------------------------------|
A|-4-4--4----------------------|-4-4--4-------------------2-3--|
E|--------2-2--2-4-4--2-4-4--2-|--------2-2--2-4-4--2-4-4------|

G|------------------------------|-----------------------------|
D|------------------------------|-----------------------------|
A|-4-4--4-------------------2-3-|-4-4--4----------------------|
E|--------2-2--2-4-4--2-4-4-----|--------2-2--2-4-4-4-4-4-----|

G|------|-------------------------------|--------------------------------|
D|------|-------------------------------|--------------------------------|
A|------|--------9-9--9-7-7--9-7-7-6----|--------9-9--9-7-7--9-7-7-6-----|
E|-3-5/-|-7-7--7---------------------9--|-7-7--7---------------------9-7-|

Soyez le premier à commenter

Poster un Commentaire

Votre adresse de messagerie ne sera pas publiée.




Time limit is exhausted. Please reload CAPTCHA.