Buena Vista Social Club – chan chan

Share Button

Buena Vista Social Club – chan chan (Rytme Cubain )

 

 Toutes les tablatures sont ici  http://guitarepourdebutant.fr/tablatures-faciles/

e[--1----1------3---3---0--]  
B[--3----1------5---3---2--]  
G[--2----2------3---3---2--]   
D[--0----3------5---5---2--]  
A[-------3------3---5---0--]
E[-------------------------]

e[--1-------------1-----------------------1---]
B[--3--3----1-------1---1-5-3--2----------3---]
G[--2-------2---------2---3-3--2--2-0-----2---] 
D[--0-0-----3---3---------5-5--2------3-2-0---] 
A[------------3-------------------------------]
E[--------------------------------------------]

e[--1-------1-----1----------------------1----]
B[--3-------1---------1---5-3--2-2--2-2--3----]
G[--2-------2-------------3-3--2-2--2-2--2----] 
D[------0--------3--------5-5--2-2--2-2-------] 
A[------------3-------------------0-----------]
E[--------------------------------------------]

e[------10-10-10/12-10-8~~-(8)--10-8-----------------12-10-----------]
B[-(10)-10-10-10-------10~-(10)-----(10)-11--11--11-------(11)-10~~--]
G[--------------------------------------(10)(10)(10)-----------------]
D[-------------------------------------------------------------------]

e[-------------------0-------]
B[-10-8-6-5-3~--1~-----3-----]
G[-----------------------2---]
D[---------------------------]

e[--5~-------5~------6~-----------]
B[-----6-5-3----6-5-3---6-5-3-----]
G[----------------------------3~--]
D[--------------------------------]

e[-10--10~--8-10--8~---10-8---------------------------------8~-]
B[-10--10~--------10~-------11---------10~----------10-11-12---]
G[-----------------------------9-10-12------9-10-12------------]
D[-------------------------------------------------------------]

e[----------------------10-10-10-10-10/12-10-8--8~--10-8--------8------]
B[-6p5---8-8--[Outline-]10-10-10-10----------10-10~------11-8-11-11-10-]
G[-----7------[---A----]-----------------------------------------------]
D[------------[-Chord--]-----------------------------------------------]

e[--------------6-7-8/10-8\6----------------------------]
B[--------6-8/10-------------10-8-6----8----------------]
G[-7-7-7-9-------------------------9-7--10-9-7----------]
D[---------------------------------------------10-8-7~--]