Christina Perri – A Thousand Years

Share Button
Christina Perri - A Thousand Years

 Toutes les tablatures sont ici  http://guitarepourdebutant.fr/tablatures-faciles/ 

A: X02220       Ao: X02200      A4: X02222
E: 022100       E7: 022130      E6: 022120
D: XX0232       Dsus2: XX0230
Bm: X24432

Capo: 1

|-----------0------------------------------------------------|
|--2--------0--------------3---------------------------------|
|--2--------1--------------2-------2----------------2--1-----|
|--2--------2--------------0------------------------------2--|
|------------------------------------------------------------|
|------------------------------------------------------------|

   D   E   D       E
|--2---4---5-------4--|
|--3---5---7-------5--|
|--2---4---7-------4--|
|--4---6---7-------6--|
|--5---7---5-------7--|
|--x---x---x-------x--|

 

Soyez le premier à commenter

Poster un Commentaire

Votre adresse de messagerie ne sera pas publiée.




Time limit is exhausted. Please reload CAPTCHA.