Christophe Mae C’est ma terre

Share Button

 Christophe Mae  C’est ma terre

Toutes les tablatures sont ici http://guitarepourdebutant.fr/tablatures-faciles/


↓ Gratter vers le bas 

↑ gratter vers le haut


e|--1-1----0---------------3--3----0--------------|
B|--1-1----1------5-3-1-0--3--3----1---1-0p1-1-0--|
G|--2-2----0---------------0--0----2---2-2---2-2--|
D|--3-3----2---------------0-------2---2-----2-2--|
A|--3------3---------------2-------0--------------|
E|--1------x---------------3-------x--------------|
    ↓ ↑    ↓      ↓ ↑ ↓ ↑   ↓ ↑    ↓   ↓ ↓   ↓  ↑

e|--1-1----0---------------3--3----0--------------|
B|--1-1----1------5-3-1-0--3--3----1-------0-0-1--|
G|--2-2----0---------------0--0----2-------0-0-0--|
D|--3-3----2---------------0-------2--------------|
A|--3------3---------------2-------0--------------|
E|--1------x---------------3-------x--------------|
    ↓ ↑    ↓      ↓ ↑ ↓ ↑  ↑  ↑    ↓       ↓ ↑ ↓

e|--1-1----0---------------3--3----0--------------|
B|--1-1----1---1--0p1-1-0--3--3----1---1-0p1-1-0--|
G|--2-2----0---0--0---0-0--0--0----2---2-2---2-2--|
D|--3-3----2---2-----------0-------2---2-----2-2--|
A|--3------3---------------2-------0--------------|
E|--1------x---------------3-------x--------------|
         ↓  ↑       ↓        ↓    ↓        ↓ ↑     ↓     ↑         ↓       ↓  ↓        ↓ ↑


	

Soyez le premier à commenter

Poster un Commentaire

Votre adresse de messagerie ne sera pas publiée.




Time limit is exhausted. Please reload CAPTCHA.