Claude Bizet Carmen ( classique )

Share Button

 

Claude Bizet Carmen

Imprimer cette tablature Imprimer cette tablature

Toutes les tablatures sont ici  http://guitarepourdebutant.fr/tablatures-faciles/


E||----------|----------|----------|------------|-----------------|
B||----------|----------|----------|------3--2--|--1--1--1--0-----|
G||----------|----------|----------|------------|--------------3--|
D||----------|----------|----------|------------|-----------------|
A||----------|----------|----------|------------|-----------------|
E||----------|----------|----------|------------|-----------------|

--------------|---------------|-------------|-----------------|--------------|
--------------|---------------|-------3--2--|--1--1--1--0-----|--------------|
--2---2-1--0--|---------0-----|-------------|--------------3--|--2---2-0-----|
--------------|--3--2p3----3--|--2----------|-----------------|-----------3--|
--------------|---------------|-------------|-----------------|--------------|
--------------|---------------|-------------|-----------------|--------------|

---------------|-------------|-----------------|--------------|---------------|
---------------|-------3--2--|--1--1--1--0-----|--------------|---------------|
---------------|-------------|--------------3--|--2---2-1--0--|---------0-----|
--2--0-2-3--2--|--0----------|-----------------|--------------|--3--2p3----3--|
---------------|-------------|-----------------|--------------|---------------|
---------------|-------------|-----------------|--------------|---------------|

-------------|-----------------|--------------|---------------|--------------|
-------3--2--|--1--1--1--0-----|--------------|---------------|--------------|
-------------|--------------3--|--2---2-0-----|---------------|------2-------|
--2----------|-----------------|-----------3--|--2--0-2-3--2--|--0-----0--2--|
-------------|-----------------|--------------|---------------|--------------|
-------------|-----------------|--------------|---------------|--------------|

--------------|--------------|----------------|--------------|--------------|
--------------|--------------|----------0-----|------0-------|------0-------|
------2-------|-----------0--|--2-2-2-2----2--|--0-----------|--0-----0-----|
--4-----4--2--|--0---2-4-----|----------------|--------2--4--|-----------4--|
--------------|--------------|----------------|--------------|--------------|
--------------|--------------|----------------|--------------|--------------|

--------------|----------------|-----------0--|--2-----------|--------------|
--------------|--0-0-0-0-2--0--|--------3-----|--------------|--------------|
--------0--2--|----------------|--2---2-------|------2-------|-----------0--|
--2---4-------|----------------|--------------|--------4--2--|--0---2-4-----|
--------------|----------------|--------------|--------------|--------------|
--------------|----------------|--------------|--------------|--------------|

----------------|--------0--2--|--3-----------|--------------|
----------3--2--|------0-------|------0-------|--------------|
--2-2-2-2-------|--0-----------|--------0-----|--------0--2--|
----------------|--------------|-----------4--|--2---4-------|
----------------|--------------|--------------|--------------|
----------------|--------------|--------------|--------------|

----------2-0-2-0-|-----------|----------|----------|------------|
--2-0-------------|--3--------|----------|----------|------3--2--|
------1-2---------|-----------|----------|----------|------------|
------------------|-----------|----------|----------|------------|
------------------|-----------|----------|----------|------------|
------------------|-----------|----------|----------|------------|

-----------------|--------------|---------------|-------------|
--1--1--1--0-----|--------------|---------------|-------3--2--|
--------------3--|--2---2-1--0--|---------0-----|-------------|
-----------------|--------------|--3--2p3----3--|--2----------|
-----------------|--------------|---------------|-------------|
-----------------|--------------|---------------|-------------|

-----------------|--------------|---------------|-------------|
--1--1--1--0-----|--------------|---------------|-------3--2--|
--------------3--|--2---2-0-----|---------------|-------------|
-----------------|-----------3--|--2--0-2-3--2--|--0----------|
-----------------|--------------|---------------|-------------|
-----------------|--------------|---------------|-------------|

-----------------|--------------|---------------|-------------|
--1--1--1--0-----|--------------|---------------|-------3--2--|
--------------3--|--2---2-1--0--|---------0-----|-------------|
-----------------|--------------|--3--2p3----3--|--2----------|
-----------------|--------------|---------------|-------------|
-----------------|--------------|---------------|-------------|

-----------------|--------------|---------------|--------------|--------------|
--1--1--1--0-----|--------------|---------------|--------------|--------------|
--------------3--|--2---2-0-----|---------------|------2-------|------2-------|
-----------------|-----------3--|--2--0-2-3--2--|--0-----0--2--|--4-----4--2--|
-----------------|--------------|---------------|--------------|--------------|
-----------------|--------------|---------------|--------------|--------------|

--------------|----------------|--------------|--------------|--------------|
--------------|----------0-----|------0-------|------0-------|--------------|
-----------0--|--2-2-2-2----2--|--0-----------|--0-----0-----|--------0--2--|
--0---2-4-----|----------------|--------2--4--|-----------4--|--2---4-------|
--------------|----------------|--------------|--------------|--------------|
--------------|----------------|--------------|--------------|--------------|

----------------|-----------0--|--2-----------|--------------|----------------|
--0-0-0-0-2--0--|--------3-----|--------------|--------------|----------3--2--|
----------------|--2---2-------|------2-------|-----------0--|--2-2-2-2-------|
----------------|--------------|--------4--2--|--0---2-4-----|----------------|
----------------|--------------|--------------|--------------|----------------|
----------------|--------------|--------------|--------------|----------------|

--------0--2--|--3-----------|--------------|----------2-0-2-0-|-----------|
------0-------|------0-------|--------------|--2-0-------------|--3--------|
--0-----------|--------0-----|--------0--2--|------1-2---------|-----------|
--------------|-----------4--|--2---4-------|------------------|-----------|
--------------|--------------|--------------|------------------|-----------|
--------------|--------------|--------------|------------------|-----------|