Damien Saez : jeune et con

Share Button
Imprimer cette tablature Imprimer cette tablature

Toutes les tablatures sont ici  http://guitarepourdebutant.fr/tablatures-faciles/
Damien Saez : jeune et con

INTRO: 
|-----------------------------------------------------------------|
|-------3-----1---0-------------------3-----0h1p0---1-0-------3-0-|
|-----0-----0---0-----0-2-0---0-----0-----0-------0-----0-2-2-----|
|---2---------------0-------4-----2-------------------------------|
|---------3-----------------------------3-------------------------|
|-----------------------------------------------------------------|

|-----0----------------------------------------------------------|
|-------3-1-0-1-0-----3-0---------3-----1---0--------(3)---(3)---| 
|---0-------------2-2-----------0-----0---0-----0-2------0-------|
|-2---------------------------2---------------0------------------|
|-----------------------------------3----------------------------| 
|----------------------------------------------------------------| 

|---------------------------|
|-------3----1---0-----0----|
|-----0----0---0-----2---0-2|
|---2--------------0--------|
|---------3-----------------|
|---------------------------|

Encore un jour se lève ...
|----------------------------------------------------------|
|-----3-----1-------0-----3-----------3-------1-------0----|
|---0-----0---0---0-----0-----------0---0---0---0---0--(0)-|
|-2-------------2-----0-----------2---------------2--------|
|-------3---------------------------------3----------------|
|----------------------------------------------------------|

|-------------------------------------------------------|
|-----3-------1-------0-------3-------------------------|
|---0---0---0---0---0---0---0---0-----------------------| 4 fois
|-2---------------2-------0-----------------------------|
|---------3---------------------------------------------|
|-------------------------------------------------------|

|-------------------------------------------------------|
|-----3---1----------0-----3----------------------------|
|---0-------0------0---2-2------------------------------| 2 fois
|-2-----------2--0--------------------------------------|
|-------3-----------------------------------------------|
|-------------------------------------------------------|

Puisqu'on est Jeune et con ... 
|-------------------------------------------------------|
|-----3-------1-------0-------3-------------------------|
|---0---0---0---0---0---0---0---0-----------------------| 6 fois
|-2---------------2-------0-----------------------------|
|---------3---------------------------------------------|
|-------------------------------------------------------|

Soyez le premier à commenter

Poster un Commentaire

Votre adresse de messagerie ne sera pas publiée.




Time limit is exhausted. Please reload CAPTCHA.