Archives

Liens commerciaux

Les 14 sujets les plus lus

DEEP PURPLE : Black night

Share Button
Imprimer cette tablature Imprimer cette tablature

Toutes les tablatures sont ici  http://guitarepourdebutant.fr/tablatures-faciles/

 

 

e-------------------------------------
b-------------------------------------
g-------------------------------------
d-------------------------------------
a-7-7-7-7-7-7-5-5-5-5-5-5---------------------
e-----------------7-7-7-7-7-7-3-3-3-3-3-3-----

e-------------------------------------------------------
b-------------------------------------------------------
g-------------------------------------------------------
d----5----------------5----7--5---------------5---------
a-7----7--5-----5--7-----7-------7--5--7---------7------
e------------7---------------------------------------x2 

e---------------------------------------------
b---------------------------------------------
g---------------------------------------------
d---------------------------------------------
a-5--7------7-----7-----7--5--7-----7---------
e-------0-----0-----0-----------0-----0-------x6 

e--------------------------------------------------------
b--------------------------------------------------------
g--------------------------------------------------------
d----------------------------------------7--5-7-5-7-5-5--
a-7--5-----7-----7--9--7--5--7--5------------------------
e-------7-----7--------------------7--5------------------

e-----------------------------------------------------------
b-----------------------------------------------------------
g------------------------------------12----12-14--12-12--12-
d-7--------------------------------12---14------------------
a-------5-------5---3--3-----12h14--------------------------
e----------3--3-----------5---------------------------------

e----------12----------12-^---------------------------------
b--^-----12----^-----12--15-(17)----------------------------
g-14-(15)-----14-(15)---------------------------------------
d-----------------------------------------------------------
a-------------------------------------------7---5--5--------
e--------------------------------------5--5-----------7--5--

e----------------------------------------------------------
b----------------------------------------------------------
g-----------------------------4--------------4-------------
d-5-------5---3--3-----3------4--------------4-------------
a-------------------5---------2--------------2-------------
e----3--3--------------------------------------------------

e-------------------------
b-------------------------
g---4------4--------------
d---4------4--------------
a---2------2--------------
e-------------------------