Deep purple Smoke on the water

Share Button

Tablature facile : Deep purple Smoke on the water

Toutes les tablatures sont ici  http://guitarepourdebutant.fr/tablatures-faciles/

Imprimer cette tablature Imprimer cette tablature
|-------------------------------|---------------------------|-------------------------------|
|---TAB-------------------------|---------------------------|-------------------------------|
|---------------3----5vib-------|---3-------6----5vib-------|-------3----5---------3--------|
|---------5-----3----5vib---5---|---3-------6----5vib-------|--5----3----5---------3--------|
|---------5-----------------5---|---------------------------|--5----------------------------|
|-------------------------------|---------------------------|-------------------------------|

                                  Solo
|------------------------------||----------------------------|------------------------------|
|------------------------------||----------------------------|---------------^(13)----------|
|------------------------------||----------------------10----|--12vib-----------------------|
|------5--(5vib)---------------||----------------12----------|------------------------------|
|------5--(5vib)---------------||----------------------------|------------------------------|
|------3--(3vib)---------------||----------------------------|------------------------------|

|------------------------------|--------------------------------|------------------------
|--11---------11/--------------|--------------------------------|------------------------
|------12vib-------------------|-----12--15--15^(1t)vib--15--14-|-12--14--12H14Po12/10---
|-------------------------12---|-15-----------------------------|------------------------
|------------------------------|--------------------------------|------------------------
|------------------------------|--------------------------------|------------------------

-----------------------------|----------------------------|------8----------------8--------|
-----------------------------|------8------------------8--|--11-----11--11(1t)vib----8--11-|
--12--10---8--10-------------|--10-----10--10^(1t)vib-----|--------------------------------|
-----------------------------|----------------------------|--------------------------------|
-----------------------------|----------------------------|--------------------------------|
-----------------------------|----------------------------|--------------------------------|

|----------------8---------------------------------------------|---------------------------|
|-------------8-----11--10--8----------------------------------|---------------------------|
|-10(1t)vib--------------------11--10Po8------10--8--7Po5------|----------5------8--7--5---|
|-----------------------------------------10--------------8--7-|-5--8--7------8------------|
|--------------------------------------------------------------|---------------------------|
|--------------------------------------------------------------|---------------------------|

|-------------------------------|--------------------------|-----------3---------3--3-------
|-------------------------------|--------------------------|--------3-----6^(1t)------------
|-3^(1t)r(3)vib--(3)/5--3--2--3-|-2--3--2--0---------------|-5^(1t)-------------------------
|-------------------------------|--------------4/5vib------|--------------------------------
|-------------------------------|--------------------------|--------------------------------
|-------------------------------|--------------------------|--------------------------------

------------------------------|-------------------------------------|-3--------3--6--8^(1t)-|
--6--5--3---------------------|--------------------------------3--6-|----3--6---------------|
-----------6--5Po3--5---3-----|-5^(1t)--5^(1t)--5^(1t)--5^(1t)------|-----------------------|
------------------------------|-------------------------------------|-----------------------|
------------------------------|-------------------------------------|-----------------------|
------------------------------|-------------------------------------|-----------------------|

|--8^(1t)--8--6--8-------------|---------------8--------8---------8------8---10-------------|
|-------------------8vib----8--|-11---------8----11--8-----11--8-----11---------------------|
|------------------------------|----10^(1t)-------------------------------------------------|
|------------------------------|------------------------------------------------------------|
|------------------------------|------------------------------------------------------------|
|------------------------------|------------------------------------------------------------|

|--13---15--13^(1t)vib--13^(1t)-|--13--13^(1t)--13--13^(1t)vib--13---|-13^(1t)--13--10------
|-------------------------------|------------------------------------|----------------------
|-------------------------------|------------------------------------|----------------------
|-------------------------------|------------------------------------|----------------------
|-------------------------------|------------------------------------|----------------------
|-------------------------------|------------------------------------|----------------------

----------------------|----------------------------------------------|----------8-----------
--13---13^(1t)--------|----------6-----------------------------------|--------------11------
----------------------|--5^(1t)-----(5)H7Po5/3--5--3-----------------|--10^(1t)-------------
----------------------|-------------------------------5vib-----------|----------------------
----------------------|----------------------------------------------|----------------------
----------------------|----------------------------------------------|----------------------

---8----8^(1t)vib------|---10--10--10--10--10--10--10----|--9--9--9--9--8-------|-----------|
-----------------------|---------------------------------|----------------------|-----------|
-----------------------|---------------------------------|------------------10--|^(1t)vib---|
-----------------------|---------------------------------|----------------------|-----------|
-----------------------|---------------------------------|----------------------|-----------|
-----------------------|---------------------------------|----------------------|-----------|

Soyez le premier à commenter

Poster un Commentaire

Votre adresse de messagerie ne sera pas publiée.




Time limit is exhausted. Please reload CAPTCHA.