Archives

Les 14 sujets les plus lus

Une note de pub

Eagles : Hotel California

Share Button
Imprimer cette tablature Imprimer cette tablature

Eagles :   Hotel California

E||--7-------------7----------|-----------9---------------|
B||--7--------7------------7--|-------7-------7-11--------|
G||--7----7-------------7--9--|--9--9-------9-------------|
D||--9------9----9------------|--8------------------------|
A||--9--9---------------------|---------9-----------------|
E||--7------------------------|---------------------------|

-------------7--------------------|------7---7-------7--------|
-------10-10----10------10------7-|------------7--------------|
--9--9----------------9-------9---|--------7-----7------------|
--7----------------7--------------|----------------9----------|
---------------------------7------|--11-----------------------|
----------------------------------|---------------------------|

-----7---7-----7------------10--|-----10------10-------10-----------|
--8--------8------8----8h10-----|--7-----10-------7-------7-------7-|
--7----7-------------7----------|-----------7-------------------7---|
--9----------9------------------|-----------------------------------|
--------------------------------|-------------------9---------------|
--------------------------------|---------------------------10------|

-----7---7-------7----7--------|-----------------9--------|
-----------8---8----8--------8-|-------7---7--------------|
-------7---------------------7-|-------9-9-----9----------|
-------------9-------------9-9-|-----8-------8------------|
--7----------------------------|--9-----------------------|
------------------------7------|--------------------------|

--7------10-----7--------------|-----------9---------------|
--7--7------7-----7----7----7--|-------7-------7-11--------|
--7----7------7------7---7--9--|--9--9-------9-------------|
--9----------------------------|--8------------------------|
--9----------------------------|---------9-----------------|
--7----------------------------|---------------------------|

-------------7--------------------|------7---7-------7--------|
-------10-10----10------10------7-|------------7--------------|
--9--9----------------9-------9---|--------7-----7------------|
--7----------------7--------------|----------------9----------|
---------------------------7------|--11-----------------------|
----------------------------------|---------------------------|

-------7------7------------10--|-----10------10---------------------|
--8--8-----------8----8h10-----|--7-----10-------10----10------10---|
--7------7--7-------7----------|-----------7--------------7-------7-|
--9----------------------------|--------------------7---------------|
-------------------------------|----------------------------9-------|
-------------------------------|------------------------------------|

-----7---7-------7-------------|-------12---9-----9--------|
-----------8---8------8------8-|-----7---------------------|
--7----7------------7------7---|--9-------9-----9----------|
-------------9----------9------|--8-----------8------------|
------------------------7------|--9------------------------|
-------------------------------|---------------------------|

-------7----------7----7--12--|--------9---9---------------|
--7------7---7------7--7------|--11------------9-11--------|
-----7------------------------|------9-------9-------------|
-----------9----9-------------|----------------------------|
------------------------------|----------9-----------------|
------------------------------|----------------------------|

-------------7--------------------|------7---7-------7--------|
-------10-10----10------10------7-|------------7--------------|
-----9----------------9-------9---|--------7-----7------------|
--7----------------7--------------|----------------9----------|
---------------------------7------|--11-----------------------|
----------------------------------|---------------------------|

--7----7------7------------10--|-----10------10-------10---------|
--8------8-------8----8h10-----|--7-----10-------7-------7-------|
--------------------7----------|-----------7---------------------|
-----9------9------------------|---------------------------------|
-------------------------------|-------------------9-------------|
-------------------------------|---------------------------10----|

-----7---7-------7----7-------|-------9------12-9--------|
-----------8---8--------8-----|---------7----------------|
-------7-------------------7--|------------9-------------|
-------------9------9------9--|-----8--------------------|
--7---------------------------|--9-----------------------|
------------------------------|--------------------------|

--7------7-7-7----7----|--9-------9--9--9---------|
--7------7-7-7----7----|--11------11-11-11--------|
--7------7-7-7----7----|--9-------9--9--9---------|
--9------9-9-9----9----|--11------11-11-11--------|
--9----------9----9----|--9-----------------------|
--7----------7----7----|--------------------------|

--7---------------7-----7-----|--7------------7---------|
--10-----10-10-10-10----10----|--7------7-7-7-7---------|
--9------9--9--9--9-----9-----|--7------7-7---7---------|
--7------7--7--7--7-----7-----|--9------9-9---9---------|
--7---------------------------|--11-----------11--------|
------------------------------|-------------------------|