Ed Sheeran I See Fire ( The Hobbit )

Share Button

Ed Sheeran I See Fire ( The Hobbit ) La Désolation de Smaug
Solo A partir de 1:50 sur le clip

Capo en 6 eme case


 

e|----------------------------x---------x---------x----------------------------|
B|---5------------------------x---3-----x---------x----------------------------|
G|---2h4p2p0--------0---0-----x---0h2---x-----0---x----------------------------|
D|-------------0h2------0h2---x---0-----x-----2---x----------------------------|
A|----------------------3---------------------2--------------------------------|
E|---0-------------------------------------------------------------------------|

e|-----------------------------------------------------------------------------|
B|-----------------------------0--3p0------------------------------------------|
G|-------0--------------0h2-------2----0--0h2p0---------0--0-------0--0--------|
D|---0h2--------0-------------------------2------2------2--2p0-----2--2p0------|
A|----------0h2-----------------------------------------2--2----3--3--3--------|
E|----------------------0----------------------------0-------------------------|

e|----------------------------------------|
B|-----------0--3p0-----------------------|
G|----0h2-------2----0--0h2---------------|
D|----------------------2-----------------|
A|----------------------------------------|
E|----0-----------------------------------|

Soyez le premier à commenter

Poster un Commentaire

Votre adresse de messagerie ne sera pas publiée.




Time limit is exhausted. Please reload CAPTCHA.