Elvis Presley Love Me Tender

Share Button
Imprimer cette tablature Imprimer cette tablature

Toutes les tablatures sont ici  http://guitarepourdebutant.fr/tablatures-faciles/

TABLATURE  Elvis Presley : Love Me Tender

E | ---------------------------------------------------------
B | ---------------------------------------------------------
G | ---0---0--2---2--0-------0------0---0--2---2--0-------0--
D | -0---4------2------4-2-4------0---4------2------4-2-4----
A | ---------------------------------------------------------
E | ---------------------------------------------------------

E | ------------------------------------------------- 
B | -0-0-0--0-0-0--0-------0--0-0-1------------------
G | -----------------0-2-0----------2---2--0-------0-
D | ----------------------------------2------4-2-4---
A | -------------------------------------------------
E | -------------------------------------------------

E | ---------------------------------------------------------
B | ---------------------------------------------------------
G | ---0---0--2---2--0-------0------0---0--2---2--0-------0--
D | -0---4------2------4-2-4------0---4------2------4-2-4----
A | ---------------------------------------------------------
E | ---------------------------------------------------------

E | ------------------------------------------------- 
B | -0-0-0--0-0-0--0-------0--0-0-1------------0-----
G | -----------------0-2-0----------2---2--0-----2-0-
D | ----------------------------------2------4-------
A | -------------------------------------------------
E | -------------------------------------------------

Soyez le premier à commenter

Poster un Commentaire

Votre adresse de messagerie ne sera pas publiée.




Time limit is exhausted. Please reload CAPTCHA.