Archives

Liens commerciaux

Eric Clapton : Layla

Share Button
Imprimer cette tablature Imprimer cette tablature

Toutes les tablatures sont ici  http://guitarepourdebutant.fr/tablatures-faciles/

 

e----------|------------------------|-------------------------|--1-------------------|------------------------|
B----------|---------------3--3-----|--5--5--5----------------|--3----------3--3-----|--5---------------------|
G-------2--|---------------3--3-----|--5--5--5--2----------2--|--2----------3--3-----|--5--------2------------|
D-------0--|----0-----3----3--3-----|--5--5--5--0----------0--|--------3----3--3-----|--5-----5--0----------0-|
A-0--3-----|-------3--1----1--1--3--|--3--3--3-------0--3-----|-----3--1----1--1--x--|--3--0--3-------0--3----|
E----------|------------------------|-------------------------|----------------------|------------------------|

----------------------------|----------------------------------|
----------------------5--6--|--5h6h5---5-6--5---------5--6/-8--|
-------------------7--------|--------7---------7~--------------|
--5--5--5--7----7-----------|----------------------------------|
--3--3--3--5----------------|----------------------------------|
----------------------------|----------------------------------|
-----------------------8------------|--10-12-10h12h10-----10------------------------------|
----6--8/-10----8--10-------10--13--|-----------------13------13--10------10--------------|
------------------------------------|---------------------------------12------12--12h-10--|
------------------------------------|-----------------------------------------------------|
------------------------------------|-----------------------------------------------------|
------------------------------------|-----------------------------------------------------|
-------------------------------|--------------------------------|-----------------------|
----------------------5--6--5--|--------------------------------|-----------------------|
--9--10--9---------7-----------|--7-----7-----------------------|-----------------------|
----------------7--------------|-----7-----7/-5----3-----3/5-3--|--------0--------------|
-------------------------------|----------------------5---------|--5--3-------0----3----|
-------------------------------|--------------------------------|-----------------------|