Eric Clapton Tears In Heaven

Share Button
Imprimer cette tablature Imprimer cette tablature

Toutes les tablatures sont ici  http://guitarepourdebutant.fr/tablatures-faciles/

Tablature Eric Clapton : Tears In Heaven

E||-----|-----------------------------|-------------------------|
B||-----|--------2h3p2----5-----5--2--|-------2-----2-----2-----|
G||-----|-----2--------2--4-----4--2--|-------2-----2-----2-----|
D||-----|-----------------------------|-------------------------|
A||-----|--0--------------------------|-------------------------|
E||-0h2-|-----------------4--4-----2--|----2-----2--0--0-----0--|

|-------------------------|---------------------------|
|--3-----3-----3-----3----|--2-----2-----2-----2------|
|--2-----2-----2-----1----|--2-----2-----2-----2------|
|-------------------------|---------------------------|
|-------------------------|--0--0-----0--0--0--0------|
|--2--2-----2--0--0--0----|-----------------------0h2-|

|---------------------------|-------------------------|
|--------2h3p2----5------2--|-------2-----2-----2-----|
|-----2--------2--4------2--|-------2-----2-----2-----|
|---------------------------|-------------------------|
|--0------------------------|-------------------------|
|-----------------4------2--|----2-----2--0--0-----0--|

                          |------5/7-5--------------|
                          |------------5/7-5-----5--|
            2éme Guitare  |------------------4/6----|
                          |-------------------------|
                          |-------------------------|
                          |-------------------------|

|--------------------------|--------------------------|
|--3-----3-----2-----2-----|--0-----0-----2-----3-----|
|--2-----2-----2-----2-----|--1-----1-----2-----4-----|
|--------------------------|--------------------------|
|--------------------------|--------------------------|
|--2--2--2--2--0--0-----0--|-----0-----0-----0-----0--|

|----------------------------|-------------------------|
|--2-----2h3p2----5-------2--|-------2-----2-----2-----|
|-----2--------2--4-------2--|-------2-----2-----2-----|
|----------------------------|-------------------------|
|--0-------------------------|-------------------------|
|-----------------4----4--2--|----2-----2-----0-----0--|

                           |-------2--4-4/5-4--2--0--|
             2ème guitare  |-------------------------|
                           |-------------------------|
                           |-------------------------|
                           |-------------------------|
                           |-------------------------|

|--------------------------|--------------------------|
|--3-----3-----2-----2-----|--0-----0-----2-----3-----|
|--2-----2-----2-----2-----|--1-----1-----2-----4-----|
|--------------------------|--------------------------|
|--------------------------|--------------------------|
|--2--2--2--2--0--0-----0--|-----0-----0-----0-----0--|

|--------2-----------2-----|--------1-----------1-----|
|-----2-----2-----2-----2--|-----2-----2-----2-----2--|
|-----2-----2-----2-----2--|-----1-----1-----1-----1--|
|--------------------------|--------------------------|
|--------------------------|--------------------------|
|--2-----------2-----------|--1-----------1-----------|

|--------0-----------0-----|--------------------------|
|-----2-----2-----2-----2--|--------------------------|
|-----0-----0-----0-----0--|--3-----3-----4-----6-----|
|--------------------------|--4-----4-----4-----7-----|
|--------------------------|--------------------------|
|--0-----------0-----------|--2--2-----2--4--4--6--6--|

|--------------------------|--------------------------|
|--3-----3-----3-----3-----|-----3--3-----3-----------|
|--2-----2-----2-----2-----|-----2--2-----2-----------|
|--------------------------|-----2--2-----2-----------|
|--2--2-----2--2--2-----0--|--------------------------|
|--------------------------|--0--------0-------0--0h2-|

|-----------------------------|-------------------------|
|--------2h3p2----5-----5--2--|-------2-----2-----2-----|
|-----2--------2--4-----4--2--|-------2-----2-----2-----|
|-----------------------------|-------------------------|
|--0--------------------------|-------------------------|
|-----------------4--4-----2--|----2-----2--0--0-----0--|

|-------------------------|---------------------------|
|--3-----3-----3-----3----|--2-----2-----2-----2------|
|--2-----2-----2-----1----|--2-----2-----2-----2------|
|-------------------------|---------------------------|
|-------------------------|--0--0-----0--0--0--0--0h2-|
|--2--2-----2--0--0--0----|---------------------------|

|--------------------------|--------------------------|
|--------1-----------1-----|--------1-----3-----3-----|
|--------0-----------0-----|--------2-----2-----2-----|
|-----2-----2-----2-----2--|-----2-----2--------------|
|--3-----------2-----------|--0-----------------------|
|--------------------------|--------------2--2-----2--|

|--------------------------|--------------------------|
|--3-----3-----3-----3-----|--3-----3-----3-----3-----|
|--0-----0-----2-----2-----|--0-----0-----2-----0-----|
|--------------------------|--------------------------|
|--------------------------|--------------------------|
|--3--3-----3--2--2-----2--|--0--0-----0--2--2--3--3--|

|--------------------------|--------------------------|
|--------1-----------1-----|--------1-----3-----3-----|
|--------0-----------0-----|--------2-----2-----2-----|
|-----2-----2-----2-----2--|-----2-----2--------------|
|--3-----------2-----------|--0-----------------------|
|--------------------------|--------------2--2-----2--|

|--------------------------|--------------------------|
|--3-----3-----3-----3-----|--1-----1-----2-----3-----|
|--0-----0-----2-----2-----|--0-----0-----2-----4-----|
|--------------------------|--------------------------|
|--------------------------|--------------------------|
|--3--3-----3--2--2-----2--|--0--0-----0--0--0--0--0--|

|--------------------------|--------------------------|
|--------2--------5-----2--|--------2-----2-----2-----|
|-----2-----2-----4-----2--|--------2-----2-----2-----|
|--------------------------|--------------------------|
|--0-----------------------|--------------------------|
|-----------------4-----2--|-----2-----2--0--0-----0--|

|-----------0-----------------|--------------------------|
|--3-----3-----2-----2h3p2----|--0-----0-----2-----3-----|
|--2-----2-----2-----------2--|--1-----1-----2-----4-----|
|-----------------------------|--------------------------|
|-----------------------------|--------------------------|
|--2--2--------0--0-----------|-----0-----0-----0-----0--|

|-----------------------------|-------------------------|
|--------2h3p2----5-----5--2--|-------2-----2-----2-----|
|-----2--------2--4-----4--2--|-------2-----2-----2-----|
|-----------------------------|-------------------------|
|--0--------------------------|-------------------------|
|-----------------4--4-----2--|----2-----2--0--0-----0--|

|-----------0-----------------|--------------------------|
|--3-----3-----2-----2h3p2----|--0-----0-----2-----3-----|
|--2-----2-----2-----------2--|--1-----1-----2-----4-----|
|-----------------------------|--------------------------|
|-----------------------------|--------------------------|
|--2--2--------0--0-----------|-----0-----0-----0-----0--|

|-----------------------------|-------------------------|
|--------2h3p2----5-----5--2--|-------2-----2-----2-----|
|-----2--------2--4-----4--2--|-------2-----2-----2-----|
|-----------------------------|-------------------------|
|--0--------------------------|-------------------------|
|-----------------4--4-----2--|----2-----2--0--0-----0--|

|--------------------------|
|--3-----3-----3-----3-----|
|--2-----2-----2-----1-----|
|--------------------------|
|--------------------------|
|--2--2-----2--0--0--0--0--|

--------------------------------|--5----------------||
--------2-3-2h3p2----------5----|--5----------------||
------2-----------4-2-6---------|-------------------||
----2---------------------------|-------------------||
--0-----------------------------|--0----------------||
--------------------------------|-------------------||

Soyez le premier à commenter

Poster un Commentaire

Votre adresse de messagerie ne sera pas publiée.




Time limit is exhausted. Please reload CAPTCHA.