Françis Cabrel La Corrida

Share Button

Françis Cabrel La Corrida

Tablature pour débutant

guitarepourdebutant.fr

Toutes les tablatures sont ici  http://guitarepourdebutant.fr/tablatures-faciles/

Imprimer cette tablature Imprimer cette tablature
Capo 5 ème case 

|0-------------------------------|0-------------------------------|
|1-----------------------0-------|1-------------------------------|
|2-----------------------0-------|0-------------------------------|
|2-----------------------2-------|2-------------------------------|
|0-----------------------0-------|3-------------------------------|
|0-------------------------------|3-------------------------------|

|3-------------------------------|1-------------------------------|
|0-------------------------------|1-------------------------------|
|0-------------------------------|2-------------------------------|
|0-------------------------------|3-------------------------------|
|2-------------------------------|3-------------------------------|
|3-------------------------------|1-------------------------------|

|0-------------------------------|0-------------------------------|
|1-------------------------------|1-------------------------------|
|2-------------------------------|0-------------------------------|
|2-------------------------------|2-------------------------------|
|0-------------------------------|3-------------------------------|
|0-------------------------------|3-------------------------------|

|3-------------------------------|0-------------------------------|
|0-------------------------------|0-------------------------------|
|0-------------------------------|2-------------------------------|
|0-------------------------------|3-------------------------------|
|2-------------------------------|3-------------------------------|
|3-------------------------------|1-------------------------------|

|--------------------0-----------|--------------------------------|
|--------------------------------|3-------1-------3-------1-------|
|------------2-------------------|--------------------------------|
|--------2---------------2-------|3-------2-------3-------2-------|
|0---------------0---------------|--------------------------------|
|--------------------------------|--------------------------------|

|0-------------------------------|--------------------------------|
|------------1/--3-------1-------|----------------------------1---|
|--------------------------------|------------0-----------0-------|
|--------2---1/--3-------2-------|--------2-------0h--2-----------|
|3---------------3---------------|3-------------------------------|
|--------------------------------|--------------------------------|

|--------------------------------|--------------------------------|
|--------------------3-----------|1-----------0-------------------|
|--------------------4-----------|2-----------0-----------2-------|
|--------0---------------0-------|--------0---------------3-------|
|--------------------------------|--------------------------------|
|3---------------3---------------|3---------------3---------------|

|--------------------------------|--------------------------------|
|--------------------1-----------|0-------------------0-----------|
|------------2-------------------|------------2-------------------|
|--------3---------------3-------|--------3---------------3-------|
|--------------------------------|--------------------------------|
|1---------------1---------------|1---------------1---------------|

Soyez le premier à commenter

Poster un Commentaire

Votre adresse de messagerie ne sera pas publiée.




Time limit is exhausted. Please reload CAPTCHA.