Archives

Liens commerciaux

Guns N Roses : Knocking on heavens door

Share Button
Imprimer cette tablature Imprimer cette tablature
E --3-3-------------2-0---------------------0-----------------|
B --3---3---3-----3-----3---3---------1-----------1-----------|
G --0-----0-----2---------2---0-----0---0-------0---2-0-----0-|
D --0---------0---------------0-2---------2---2-------0-2-----|
A --3-----------------------------3-----------------------3---|
E --2---------------------------------------------------------|

E --3---3-3-3-2----2---2--2---0------0---0-0---0-0----0---0-0-0-|
B --3---3-3-3-3----3---3--3---1------1---1-1---1-1----1---1-1-1-|
G --0---0-0-0-2----2---2--2---2------2---2-2---2-2----2---2-2-2-|
D --0---0-0-0-0----0---0--0---2------2---2-2---2-2----2---2-2-2-|
A --2---2-2-2-----------------0------0---0-0---0-0----0---0-0-0-|
E --3---3-3-3---------------------------------------------------|

E --3---3-3-3-2----2---2--2---0------0---0-0---0-0----0---0-0-0-|
B --3---3-3-3-3----3---3--3---1------1---1-1---1-1----1---1-1-1-|
G --0---0-0-0-2----2---2--2---0------0---0-0---0-0----0---0-0-0-|
D --0---0-0-0-0----0---0--0---2------2---2-2---2-2----2---2-2-2-|
A --2---2-2-2-----------------3------3---3-3---3-3----3---3-3-3-|
E --3---3-3-3-----------------0------0---0-0---0-0----0---0-0-0-|

 *1 er Couplet
E --3-3-------2-----2-0-------0-------------0-------------------|
B --3---3---3-3---3-----3---3-1-----0-1-----------1-------------|
G --0-----0---2-2---------2---2---2-----2-------2---2----0----0-|
D --0-----0---0---------------2-2---------2---2-------0/2--0/2--|
A --2-------------------------0---------------------------------|
E --3-----------------------------------------------------------|

E --3-3-------------2-0-------0---------------------------------|
B --3---3---3-----3-----3---3-1------1----------------1---------|
G --0-----0-----2---------2---0---0-----0-----------0---0-----0-|
D --0---------0---------------2------------2----2---------2-----|
A --2-------------------------3---------------3---3---------3---|
E --3-------------------------0---------------------------------|

*Refrain
E --3---3-3-3-2----2---2--2---0------0---0-0---0-0----0---0-0-0-|
B --3---3-3-3-3----3---3--3---1------1---1-1---1-1----1---1-1-1-|
G --0---0-0-0-2----2---2--2---0------0---0-0---0-0----0---0-0-0-|
D --0---0-0-0-0----0---0--0---2------2---2-2---2-2----2---2-2-2-|
A --2---2-2-2-----------------3------3---3-3---3-3----3---3-3-3-|
E --3---3-3-3-----------------0------0---0-0---0-0----0---0-0-0-|