Archives

Les 14 sujets les plus lus

Une note de pub

Jazz pour débutant guitare

Share Button

Jazz pour débutant à la guitare .

Ce morceau n’est pas si facile , patience et entrainement ;-)
Imprimer cette tablature Imprimer cette tablature

Toutes les autres tablatures sont ici http://guitarepourdebutant.fr/tablatures-faciles/

 

G|----------|---------|---------|---------|---------|---------|-------|
D|----------|---------|---------|---------|---------|---------|---5-5-|
A|--3-----1-|-3-------|---3-3-3-|---3-3-4-|-5-------|---5-5-5-|-3-----|
E|----3-3---|---3-3-2-|-1-------|-1-------|---4-4-4-|-3-------|-------|

G|----------|---------|---------|---------|-6-------|---------|-------|
D|----5-5-5-|---8-8-7-|-6-------|---6-6-6-|---4-4-4-|---------|-------|
A|--3-------|-6-------|---6-6-5-|-4-------|---------|-5-------|---5-5-|
E|----------|---------|---------|---------|---------|---4-4-4-|-3-----|

G|----------|----------|
D|----5-5-5-|----------|
A|--3-------|-5-----5--|
E|----------|---4-3----|

Et faire tourner en boucle