Archives

Liens commerciaux

Les 14 sujets les plus lus

Jeff Buckley : Hallelujah

Share Button
Imprimer cette tablature Imprimer cette tablature

Toutes les tablatures sont ici  http://guitarepourdebutant.fr/tablatures-faciles/

Tablature  Jeff Buckley : Hallelujah


Intro : 

e|---------0------|----------0------|----------0------|-----------0-------|
B|------1-----1---|------1-----1----|------1-----1----|-------1-----1-----|
G|---0----------0-|---2-----------2-|---0-----------0-|----2-----------2--|
D|----------------|-----------------|-----------------|-------------------|
A|-3--------------|-0---------------|-3---------------|-0-----------------|
E|----------------|-----------------|-----------------|-------------------|                 

e|---------0------|----------0------|----------0------|-----------0-------|
B|------1-----1---|------1-----1----|------1-----1----|-------1-----1-----|
G|---0----------0-|---2-----------2-|---0-----------0-|----2-----------2--|
D|----------------|-----------------|-----------------|-------------------|
A|-3--------------|-0---------------|-3---------------|-0-----------------|
E|----------------|-----------------|-----------------|-------------------|                 

e|---------1------|---------3-------|---------0-------|---------3---------|
B|-------1---1----|------0-----0----|------1-----1----|------0-----0------|
G|----2--------2--|---0----------0--|---0----------0--|---0-----------0---|
D|----------------|-----------------|-----------------|-------------------|
A|-3--------------|-----------------|-3---------------|-------------------|
E|----------------|-3---------------|-----------------|-3-----------------|  

e|---------0------|--------|--------|--------0--------|----------1--------|
B|------1-----1---|------1-|------0-|------1---1------|--------1---1------|
G|---0----------0-|---2----|---0----|---2---------2---|----2----------2---|
D|----------------|--------|--------|-----------------|-------------------|
A|----------------|-3------|--------|-0---------------|-3-----------------|
E|-3--------------|--------|-3------|-----------------|-------------------|
e|----------3-----|---------0-------|---------0-------|---------0---------|
B|-------0----0---|------0-----0----|------1----1-----|------1-----1------|
G|----0---------0-|---0----------0--|---2----------2--|---2-----------2---|
D|----------------|-----------------|-----------------|-------------------|
A|-3--------------|-2---------------|-0---------------|-0-----------------|
E|----------------|-----------------|-----------------|-------------------|  

e|---------1------|---------1-------|---------0-------|---------0---------|
B|------1----1----|------1-----1----|------1-----1----|------1-----1------|
G|---2----------2-|---2-----------2-|---2-----------2-|---2-----------2---|
D|----------------|-----------------|-----------------|-------------------|
A|-3--------------|-3---------------|-0---------------|-0-----------------|
E|----------------|-----------------|-----------------|-------------------|  

e|----------1-----|----------1------|----------0------|----------3---------|
B|-------1----1---|-------1----1----|-------1-----1---|------0------0-----|
G|----2---------2-|----2----------2-|----0----------0-|---0------------0--|
D|----------------|-----------------|-----------------|-------------------|
A|-3--------------|-3---------------|-3---------------|-------------------|
E|----------------|-----------------|-----------------|-3-----------------|  

e|---------0------|---------0-------|
B|-------1---1----|------1-----1----|
G|----0---------0-|----0---------0--|
D|----------------|-----------------|
A|-3--------------|-3---------------|
E|----------------|-----------------|

e|---------0------|----------0------|----------0------|-----------0-------|
B|------1-----1---|------1-----1----|------1-----1----|-------1-----1-----|
G|---0----------0-|---2-----------2-|---0-----------0-|----2-----------2--|
D|----------------|-----------------|-----------------|-------------------|
A|-3--------------|-0---------------|-3---------------|-0-----------------|
E|----------------|-----------------|-----------------|-------------------|                 

e|---------1------|---------3-------|---------0-------|---------3---------|
B|-------1---1----|------0-----0----|------1-----1----|------0-----0------|
G|----2--------2--|---0----------0--|---0----------0--|---0-----------0---|
D|----------------|-----------------|-----------------|-------------------|
A|-3--------------|-----------------|-3---------------|-------------------|
E|----------------|-3---------------|-----------------|-3-----------------|  

e|---------0------|--------|--------|--------0--------|----------1--------|
B|------1-----1---|------1-|------0-|------1---1------|--------1---1------|
G|---0----------0-|---2----|---0----|---2---------2---|----2----------2---|
D|----------------|--------|--------|-----------------|-------------------|
A|----------------|-3------|--------|-0---------------|-3-----------------|
E|-3--------------|--------|-3------|-----------------|-------------------|  

e|----------3-----|---------0-------|---------0-------|---------0---------|
B|-------0----0---|------0-----0----|------1----1-----|------1-----1------|
G|----0---------0-|---0----------0--|---2----------2--|---2-----------2---|
D|----------------|-----------------|-----------------|-------------------|
A|-3--------------|-2---------------|-0---------------|-0-----------------|
E|----------------|-----------------|-----------------|-------------------|  

e|---------1------|---------1-------|---------0-------|---------0---------|
B|------1----1----|------1-----1----|------1-----1----|------1-----1------|
G|---2----------2-|---2-----------2-|---2-----------2-|---2-----------2---|
D|----------------|-----------------|-----------------|-------------------|
A|-3--------------|-3---------------|-0---------------|-0-----------------|
E|----------------|-----------------|-----------------|-------------------|  

e|----------1-----|----------1------|----------0------|----------3---------|
B|-------1----1---|-------1----1----|-------1-----1---|------0------0-----|
G|----2---------2-|----2----------2-|----0----------0-|---0------------0--|
D|----------------|-----------------|-----------------|-------------------|
A|-3--------------|-3---------------|-3---------------|-------------------|
E|----------------|-----------------|-----------------|-3-----------------|  

e|---------0------|---------0-------|
B|-------1---1----|------1-----1----|
G|----0---------0-|----0---------0--|
D|----------------|-----------------|
A|-3--------------|-3---------------|
E|----------------|-----------------|

e|---------0------|----------0------|----------0------|-----------0-------|
B|------1-----1---|------1-----1----|------1-----1----|-------1-----1-----|
G|---0----------0-|---2-----------2-|---0-----------0-|----2-----------2--|
D|----------------|-----------------|-----------------|-------------------|
A|-3--------------|-0---------------|-3---------------|-0-----------------|
E|----------------|-----------------|-----------------|-------------------|                 

e|---------1------|---------3-------|---------0-------|---------3---------|
B|-------1---1----|------0-----0----|------1-----1----|------0-----0------|
G|----2--------2--|---0----------0--|---0----------0--|---0-----------0---|
D|----------------|-----------------|-----------------|-------------------|
A|-3--------------|-----------------|-3---------------|-------------------|
E|----------------|-3---------------|-----------------|-3-----------------|
e|---------0------|--------|--------|--------0--------|----------1--------|
B|------1-----1---|------1-|------0-|------1---1------|--------1---1------|
G|---0----------0-|---2----|---0----|---2---------2---|----2----------2---|
D|----------------|--------|--------|-----------------|-------------------|
A|----------------|-3------|--------|-0---------------|-3-----------------|
E|-3--------------|--------|-3------|-----------------|-------------------|
e|----------3-----|---------0-------|---------0-------|---------0---------|
B|-------0----0---|------0-----0----|------1----1-----|------1-----1------|
G|----0---------0-|---0----------0--|---2----------2--|---2-----------2---|
D|----------------|-----------------|-----------------|-------------------|
A|-3--------------|-2---------------|-0---------------|-0-----------------|
E|----------------|-----------------|-----------------|-------------------|