Jeux interdits

Share Button

Jeux interdits , tablature facile pour débutant

guitarepourdebutant.fr 

Imprimer cette tablature Imprimer cette tablature
E-7--7--7--7--5--3--3--2--0--0--3--7--12--12--12--12--10--8-------
B--0--0--0--0--0--0--0--0--0--0--0--0---0---0---0---0---0--0------
G---0--0--0--0--0--0--0--0--0--0--0--0---0---0---0---0---0--0-----
D-----------------------------------------------------------------
A-----------------------------------------------------------------
E-0--------0--------0--------0--------0-----------0---------------

E-8--7--5--5--7--8--7--8--7--11--8--7--7--5--3--3--2--0--2--2--2--
B--5--5--5--5--5--5--7--7--7---7--7--7--0--0--0--0--0--0--0--0--0-
G---5--5--5--5--5--5--8--8--8---8--8--8--0--0--0--0--0--0--2--2--2
D-----------------------------------------------------------------
A-0--------0---------------------------------------------2--------
E-------------------7--------7---------0--------0-----------------

E-2--3--2--0--0--0---0-||-4--4--4--4--2--0------------------------
B--0--0--0--0--0--0--0-||--0--0--0--0--0--0-5--4--4--4--3--4------
G---2--2--2--0--0--0-0-||---1--1--1--1--1--1-2--2--2--2--2--2-----
D----------2---------2-||---------------------4--4--4--4--4--4----
A-2-----------2------2-||-------------------2---------------------
E----------------3---0-||-0--------0------------------------------

E-9--9--9--9--11--9--9--7--7--7--9--11--12--12--12--12--11--10----
B--7--7--7--7---7--7--9--9--9--9--9---9---9---9---9---9---9---9---
G---8--8--8--8---8--8--9--9--9--9--9---9---9---9---9---9---9---9--
D-----------------------------------------------------------------
A-----------------------------------------------------------------
E-7--------7---------0--------0---------0-----------0-------------

E-9--9--9--9--7--5--4--4--4--4--5--2--0--0--0---0---------------||
B--5--5--5--5--5--5--0--0--0--0--0--0--0--0--0--0---------------||
G---6--6--6--6--6--6--1--1--1--2--2--2--1--1--1-1---------------||
D-------------------------------------2---------2---------------||
A-0--------0-----------------2-----------2------2---------------||
E-------------------0------------------------4--0---------------||

 

Soyez le premier à commenter

Poster un Commentaire

Votre adresse de messagerie ne sera pas publiée.




Time limit is exhausted. Please reload CAPTCHA.