John Lennon Imagine

Share Button


 

John Lennon Imagine

Imprimer cette tablature Imprimer cette tablature

Toutes les tablatures sont ici  http://guitarepourdebutant.fr/tablatures-faciles/

 

|-----------------|-------------------|-----------------|--------------------|
|-------------0---|-----------------0-|-------------0---|-----------------0--|
|-0---0---0---0---|-2---2---2---2-3---|-0---0---0---0---|-2---2---2---2-3----|
|-2---2---2-------|-3---3---3---------|-2---2---2-------|-3---3---3----------|
|---3---3---3---3-|---3---3---3-------|---3---3---3---3-|---3---3---3--------|
|-----------------|-------------------|-----------------|--------------------|

|-----------------|-------------------|-----------------|-------------------|
|-------------0---|-----------------0-|-------------0---|-----------------0-|
|-0---0---0---0---|-2---2---2---2-3---|-0---0---0---0---|-2---2---2---2-3---|
|-2---2---2-------|-3---3---3---------|-2---2---2-------|-3---3---3---------|
|---3---3---3---3-|---3---3---3-------|---3---3---3---3-|---3---3---3-------|
|-----------------|-------------------|-----------------|-------------------|

|-----------------|-------------------|-----------------|-------------------|
|-------------0---|-----------------0-|-------------0---|-----------------0-|
|-0---0---0---0---|-2---2---2---2-3---|-0---0---0---0---|-2---2---2---2-3---|
|-2---2---2-------|-3---3---3---------|-2---2---2-------|-3---3---3---------|
|---3---3---3---3-|---3---3---3-------|---3---3---3---3-|---3---3---3-------|
|-----------------|-------------------|-----------------|-------------------|

|-----------------|-----------------|-----------------|-1----|
|-1---1---1---1---|-1---1---1---1---|-3---3---3---5---|-3----|
|-2---2---2---2---|-2---2---2---2---|-4---4---4---5---|------|
|-3-3---3-2-2---2-|-0-0---0---------|---5---5---5---5-|------|
|-----------------|---------3-3---3-|-----------------|------|
|-----------------|-----------------|-3---------------|-3----|

|-----------------|-------------------|-----------------|-------------------|
|-----------------|-------------------|-----------------|-------------------|
|-----------------|-2-----------------|-0---------------|-2-----------------|
|-2---------------|-3-----------------|-2---------------|-3-----------------|
|-3---------------|-3-----------------|-3---------------|-3-----------------|
|-----------------|-------------------|-----------------|-------------------|
|-----------------|-------------------|-----------------|-------------------|
|-------------0---|-----------------0-|-------------0---|-----------------0-|
|-0---0---0---0---|-2---2---2---2-3---|-0---0---0---0---|-2---2---2---2-3---|
|-2---2---2-------|-3---3---3---------|-2---2---2-------|-3---3---3---------|
|---3---3---3---3-|---3---3---3-------|---3---3---3---3-|---3---3---3-------|
|-----------------|-------------------|-----------------|-------------------|

|-----------------|-------------------|-----------------|-------------------|
|-----------------|-------------------|-----------------|-------------1-----|
|-0---------------|-2-----------------|-0---------------|-2-----------2-----|
|-2---------------|-3-----------------|-2---------------|-3-----------3-----|
|-3---------------|-3-----------------|-3---------------|-3-----------------|
|-----------------|-------------------|-----------------|-------------------|
|
|-----------------|-------------------|-----------------|-------------------|
|-------------0---|-----------------0-|-------------0---|-----------------0-|
|-0---0---0---0---|-2---2---2---2-3---|-0---0---0---0---|-2---2---2---2-3---|
|-2---2---2-------|-3---3---3---------|-2---2---2-------|-3---3---3---------|
|---3---3---3---3-|---3---3---3-------|---3---3---3---3-|---3---3---3-------|
|-----------------|-------------------|-----------------|-------------------|

|-1---------------|-1---------------|-------------0---|-1----||
|-1-------1-------|-3---------------|-3-----------1---|-3----||
|-2-------2-------|-2---------------|-4---------------|-2----||
|---------2-------|-----------------|-0-----------2---|------||
|-----------------|-----------------|-----------------|------||
|-----------------|-----------------|-----------------|------||
|-----------------|-----------------|-----------------|-1----||
|-1---1---1---1---|-1---1---1---1---|-3---3---3---5---|-3----||
|-2---2---2---2---|-2---2---2---2---|-4---4---4---5---|------||
|-3-3---3-2-2---2-|-0-0---0---------|---5---5---5---5-|------||
|-----------------|---------3-3---3-|-----------------|------||
|-----------------|-----------------|-3---------------|-3----||

|----------7-----10--|-8-------7-------|-------8---7-----10--|-8-------7-------|
|-----10---8-----(8)-|-8-------9-------|-10---10---8-----(8)-|-8-------9-------|
|--------------------|-----------------|-10------------------|-----------------|
|--------------------|-----------------|---------------------|-----------------|
|--------------------|-----------------|---------------------|-----------------|
|--------------------|-----------------|---------------------|-----------------|
|
|--------------------|-----------------|---------------------|-----------------|
|-1----1---3---3-----|-----0---0---0---|--1----1---3---3-----|-----0---0---0---|
|-2----2---4---4-----|-0---0---1---1---|--2----2---4---4-----|-0---0---1---1---|
|---3----3---5----5--|-2---------2---2-|----3----3---5----5--|-2---------2---2-|
|--------------------|-3-3---3---------|---------------------|-3-3---3---------|
|-1--------3---------|---------0-------|--1--------3---------|---------0-------|
|-------8---7-----10--|-8-------12-------|--8-------7-------|-8---------------||
|-10---10---8-----(8)-|-8-------12-------|-10-------8-------|-8---------------||
|-10------------------|---------13-------|-10-------7-------|-----------------||
|---------------------|------------------|------------------|-----------------||
|---------------------|------------------|------------------|-----------------||
|---------------------|------------------|------------------|-----------------||
|
|---------------------|------------------|------------------|-3---------------||
|--1----1---3---3-----|-----0----0---0---|--1---1---3---3---|-5-----1---1---1-||
|--2----2---4---4-----|-0---0----1---1---|--2---2---4---4---|---5-------------||
|----3----3---5----5--|-2----------2---2-|----3---3---5---5-|-----------------||
|---------------------|-3-3---3----------|------------------|-3-------0---2---||
|--1--------3---------|----------0-------|--1-------3-------|-----3-----------||

1 Trackback / Pingback

  1. Mark David Chapman reste en prison

Poster un Commentaire

Votre adresse de messagerie ne sera pas publiée.




Time limit is exhausted. Please reload CAPTCHA.