Archives

Liens commerciaux

Les 14 sujets les plus lus

Johnny Hallyday – Penitencier

Share Button
Imprimer cette tablature Imprimer cette tablature

Toutes les tablatures sont ici  http://guitarepourdebutant.fr/tablatures-faciles/

E|-----------0-----------------0---------------2-----------------1-----------
B|--------1-----1-----------1----1----------3-----3-----------1-----1--------
G|-----2-----------2-----0---------0-----2-----------2-----2-----------2-----
D|------------------------------------0-----------------3--------------------
A|--0-----------------3------------------------------------------------------
E|---------------------------------------------------------------------------

   Am                 C                  E                 E7
E|------------0-----------------0-----------------0------------------0--------
B|---------1-----1-----------1-----1-----------0-----0------------3-----3-----
G|------2-----------2-----0-----------0-----1-----------1------1-----------1--
D|----------------------------------------------------------------------------
A|--0------------------3------------------------------------------------------
E|---------------------------------------0------------------0-----------------

   Am                 C                 D                 F
E|-----------0-----------------0---------------2-----------------1-----------
B|--------1-----1-----------1----1----------3-----3-----------1-----1--------
G|-----2-----------2-----0---------0-----2-----------2-----2-----------2-----
D|------------------------------------0-----------------3--------------------
A|--0-----------------3------------------------------------------------------
E|---------------------------------------------------------------------------

   Am                 E                 Am                E7
E|-----------0-----------------0-----------------0-----------------0---------
B|--------1-----1-----------0-----0-----------1-----1-----------3-----3------
G|-----2-----------2-----1-----------1-----2-----------2-----1-----------1---
D|---------------------------------------------------------------------------
A|--0-----------------------------------0------------------------------------
E|--------------------0-----------------------------------0------------------  × 2

   Am
E|--------------0----
B|-----------1-------
G|--------2----------
D|-----2-------------
A|--0----------------
E|-------------------