Lady gaga Alejandro

Share Button
Imprimer cette tablature Imprimer cette tablature

Toutes les tablatures sont ici  http://guitarepourdebutant.fr/tablatures-faciles/



tablature lady gaga Alejandro
e|---------------------------------------------------------------------|
B|--------------5-7--3--3--5--3--2--8-------------2--5--5--3-----1-2---|
G|---------------------------------------------3--------------3--------|
D|--4--5-7-5--4-----------------------5--5--4--------------------------|
A|---------------------------------------------------------------------|
E|---------------------------------------------------------------------|

e|---------------------------------------------------------------------|
B|---------------2--2-3------------------------------------------------|
G|---4--4--3--4--------------------------------------------------------|
D|---------------------------------------------------------------------|
A|---------------------------------------------------------------------|
E|---------------------------------------------------------------------|

e|---------------------------------------------------------------------|
B|--0--0--0--3--5--7--7--7--5--7--7--7--3--2--2-3-2-3------------------|
G|---------------------------------------------------------------------|
D|---------------------------------------------------------------------|
A|---------------------------------------------------------------------|
E|---------------------------------------------------------------------|

e|----------------------------------------5--5-------------------------|
B|--0--0--0--3--5--7--7--7--5--7--7--7--7--7--7------------------------|
G|---------------------------------------------------------------------|
D|---------------------------------------------------------------------|
A|---------------------------------------------------------------------|
E|---------------------------------------------------------------------|

Soyez le premier à commenter

Poster un Commentaire

Votre adresse de messagerie ne sera pas publiée.




Time limit is exhausted. Please reload CAPTCHA.