Marilyn Manson sweet dreams

Share Button

sweet dreams Marilyn Manson

Toutes les tablatures sont ici  http://guitarepourdebutant.fr/tablatures-faciles/

E||--------------------------|--------------------------|
B||--------------------------|--------------------------|
G||--------------------------|--------------------------|
D||--------5-----6-----5-----|--------------------------|
A||--3--3-----3-----3-----3--|--------5/-6--------5/-7--|
E||--------------------------|--3--3--------2--2--------|

--------------------------|--------------------------|
--------------------------|--------------------------|
--------------------------|--------------------------|
--------5-----6-----5-----|--------------------------|
--3--3-----3-----3-----3--|--------5/-6--------5/-7--|
--------------------------|--3--3--------2--2--------|

--------------------------|--------------------------|
--------------------------|--------------------------|
--------------------------|--------------------------|
--------5-----6-----5-----|--------------------------|
--3--3-----3-----3-----3--|--------5/-6--------5/-7--|
--------------------------|--3--3--------2--2--------|

--------------------------|--------------------------|
--------------------------|--------------------------|
--------------------------|--------------------------|
--------5-----6-----5-----|--------------------------|
--3--3-----3-----3-----3--|--------5/-6--------5/-7--|
--------------------------|--3--3--------2--2--------|

--------------------------|--------------------------|
--------------------------|--------------------------|
--------------------------|--------------------------|
--------5-----6-----5-----|--------------------------|
--3--3-----3-----3-----3--|--------5/-6--------5/-7--|
--------------------------|--3--3--------2--2--------|

--------------------------|--------------------------|
--------------------------|--------------------------|
--------------------------|--------------------------|
--------5-----6-----5-----|--------------------------|
--3--3-----3-----3-----3--|--------5/-6--------5/-7--|
--------------------------|--3--3--------2--2--------|

--------------------------|--------------------------|
--------------------------|--------------------------|
--------------------------|--------------------------|
--------5-----6-----5-----|--------------------------|
--3--3-----3-----3-----3--|--------5/-6--------5/-7--|
--------------------------|--3--3--------2--2--------|

--------------------------|-------------------|-------------------|
--------------------------|-------------------|-------------------|
--------------------------|-------------------|-------------------|
--------5-----6-----5-----|-------------------|--5----------------|
--3--3-----3-----3-----3--|------3------------|--3----------------|
--------------------------|-------------------|-------------------|

--------------------|-------------------|--------------------|
--------------------|-------------------|--------------------|
--------------------|-------------------|--------------------|
--------------------|--5----------------|--------------------|
--6--------5--------|--3----------------|--6--------5--------|
--4--------3--------|-------------------|--4--------3--------|

--------------------------|--------------------------|
--------------------------|--------------------------|
--------------------------|--------------------------|
--6--6--6--6--6--6--6--6--|--6--6--6--6--6--5--5--5--|
--6--6--6--6--6--6--6--6--|--6--6--6--6--6--5--5--3--|
--4--4--4--4--4--4--4--4--|--4--4--4--4--4--3--3-----|

--------------------------|--------------------------|
--------------------------|--------------------------|
--------------------------|--------------------------|
--5--5--5--5--5--5--5--5--|--6--6--6--6--6--6--6--5--|
--3--3--3--3--3--3--3--3--|--6--6--6--6--6--6--6--5--|
--------------------------|--4--4--4--4--4--4--4--3--|

--------------------------|--------------------------|
--------------------------|--------------------------|
--------------------------|--------------------------|
--6--6--6--6--6--6--6--6--|--5--5--5--5--5--5--5--5--|
--6--6--6--6--6--6--6--6--|--5--5--5--5--5--5--5--5--|
--4--4--4--4--4--4--4--4--|--3--3--3--3--3--3--3--3--|

--------------------------|--------------------------|
--------------------------|--------------------------|
--------------------------|--------------------------|
--------5-----6-----5-----|--------------------------|
--3--3-----3-----3-----3--|--------5/-7--------5/-6--|
--------------------------|--3--3--------2--2--------|

--------------------------|--------------------------|
--------------------------|--------------------------|
--------------------------|--------------------------|
--------5-----6-----5-----|--------------------------|
--3--3-----3-----3-----3--|--------5/-7--------5/-6--|
--------------------------|--3--3--------2--2--------|

--------------------------|--------------------------|
--------------------------|--------------------------|
--------------------------|--------------------------|
--------5-----6-----5-----|--------------------------|
--3--3-----3-----3-----3--|--------5/-7--------5/-6--|
--------------------------|--3--3--------2--2--------|

--------------------------|--------------------------|
--------------------------|--------------------------|
--------------------------|--------------------------|
--------5-----6-----5-----|--------------------------|
--3--3-----3-----3-----3--|--------5--7--------5--6--|
--------------------------|--3--3--------2--2--------|

--------------------------|--------------------------|
--------------------------|--------------------------|
--------------------------|--------------------------|
--------5-----6-----5-----|--------------------------|
--3--3-----3-----3-----3--|--------5/-6--------5/-7--|
--------------------------|--3--3--------2--2--------|

--------------------------|--------------------------|
--------------------------|--------------------------|
--------------------------|--------------------------|
--------5-----6-----5-----|--------------------------|
--3--3-----3-----3-----3--|--------5/-6--------5/-7--|
--------------------------|--3--3--------2--2--------|

--------------------------|--------------------------|
--------------------------|--------------------------|
--------------------------|--------------------------|
--------5-----6-----5-----|--------------------------|
--3--3-----3-----3-----3--|--------5/-6--------5/-7--|
--------------------------|--3--3--------2--2--------|

--------------------------|--------------------------|-------------------|
--------------------------|--------------------------|-------------------|
--------------------------|--------------------------|-------------------|
--------5-----6-----5-----|--------------------------|-------5-----------|
--3--3-----3-----3-----3--|--------5/-6--------5/-7--|--3----------------|
--------------------------|--3--3--------2--2--------|-------------------|

--------------------|-------------------|--------------------|
--------------------|-------------------|--------------------|
--------------------|-------------------|--------------------|
--6--------5--------|--5----------------|--6--------5--------|
--6--------5--------|--3----------------|--6--------5--------|
--4--------3--------|-------------------|--4--------3--------|

-------------------|--------------------|-------------------|
-------------------|--------------------|-------------------|
-------------------|--------------------|-------------------|
--5----------------|--6--------5--------|--5----------------|
--3----------------|--6--------5--------|--3----------------|
-------------------|--4--------3--------|-------------------|

--------------------|--------------------------|--------------------------|
--------------------|--------------------------|--------------------------|
--------------------|--------------------------|--------------------------|
--6--------5--------|--6--6--6--6--6--6--6--6--|--6--6--6--6--6--5--5--5--|
--6--------5--------|--6--6--6--6--6--6--6--6--|--6--6--6--6--6--5--5--3--|
--4--------3--------|--4--4--4--4--4--4--4--4--|--4--4--4--4--4--3--3-----|

--------------------------|--------------------------|
--------------------------|--------------------------|
--------------------------|--------------------------|
--5--5--5--5--5--5--5--5--|--6--6--6--6--6--6--6--5--|
--3--3--3--3--3--3--3--3--|--6--6--6--6--6--6--6--5--|
--------------------------|--4--4--4--4--4--4--4--3--|

--------------------------|--------------------------|-------------------|
--------------------------|--------------------------|-------------------|
--------------------------|--------------------------|-------------------|
--6--6--6--6--6--6--6--6--|--5--5--5--5--5--5--5--5--|--5----------------|
--6--6--6--6--6--6--6--6--|--5--5--5--5--5--5--5--5--|--3----------------|
--4--4--4--4--4--4--4--4--|--3--3--3--3--3--3--3--3--|-------------------|

-------------------|-------------------|-------------------|-------------------|
-------------------|-------------------|-------------------|-------------------|
-------------------|-------------------|-------------------|-------------------|
--6----------------|--5----------------|--6----------------|--5----------------|
--6----------------|--3----------------|--6----------------|--3----------------|
--4----------------|-------------------|--4----------------|-------------------|

-------------------|-------------------|---------------------|
-------------------|-------------------|---------------------|
-------------------|-------------------|---------------------|
--6----------------|--5----------------|--6--6--6------------|
--6----------------|--3----------------|--6--6--6------------|
--4----------------|-------------------|--4--4--4------------|

----------------11--------|------------------------|------------------------|
--11------13----------11--|--13-----11-------------|------------------------|
--------------------------|--------------11b-------|------------------------|
--------------------------|------------------------|--10----8----10---------|
--------------------------|------------------------|-----------------9b-----|
--------------------------|------------------------|------------------------|

------------------------|------------------------|---------------------11--|
------------------------|------------------------|----------11--8----------|
------------------------|------------------------|--10---------------------|
------------------------|--10--------12----12----|-------------------------|
-----------------8r-----|------------------------|-------------------------|
--8----11----11---------|------------------------|-------------------------|

Soyez le premier à commenter

Poster un Commentaire

Votre adresse de messagerie ne sera pas publiée.




Time limit is exhausted. Please reload CAPTCHA.