Marmalade : System of a Down

Share Button

Tablature  Marmalade : System of a Down

 

Imprimer cette tablature Imprimer cette tablature

Toutes les tablatures sont ici  http://guitarepourdebutant.fr/tablatures-faciles/

|------------------------------------------------------------------------------------------------------
|------------------------------------------------------------------------------------------------------
|------------------------------------------------------------------------------------------------------
|---5-5-5-8---5-5-5-8---5-5-5-8---5-5-5-8---4-4-4-7---4-4-4-7---4-4-4-7----4-4-4-7---------------------   x5
|------------------------------------------------------------------------------------------------------
|------------------------------------------------------------------------------------------------------

----------------------------------------------------------------------------------|
----------------------------------------------------------------------------------|
----------8-8-7-----------8-8-7------------8-8-7-----------8-8-7------------------|
--5-5-8-8---------5-5-8-8----------4-4-7-7---------4-4-7-7------------------------|  x4
----------------------------------------------------------------------------------|
----------------------------------------------------------------------------------|

-----------------------------------------------------------------------------------------
-----------------------------------------------------------------------------------------
-----------------------------------------------------------------------------------------
-----------------------------------------------------------------------------------------
-----------------------------------------------------------------------------------------
--5-5-5-8---5-5-5-8---5-5-5-8---5-5-5-8---4-4-4-7---4-4-4-7---4-4-4-7---4-4-4-7----------

|----------------       -----------------         -------10h11p10---------          ---10h11p10--------
|----------------       -----------------         ------------------------          -------------------
|-----7h8p7------ 4x    ------7h8p7------    4x   ------------------------    4x    -------------------   4x
|---0------------       -----------------         ---0--------------------          -------------------
|----------------       -----------------         ------------------------          -------------------
|----------------       ---0-------------         ------------------------          --0----------------

|---------------------------------------------------------------------------------------------------
|---------------------------------------------------------------------------------------------------
|--12-12-12-12-12-12-12-12-14-14-14-14-15-15-15-15-11-11-11-11-11-11-11-11-15-15-15-15-14-14-14-14--  x2 
|---------------------------------------------------------------------------------------------------   
|---------------------------------------------------------------------------------------------------
|---------------------------------------------------------------------------------------------------

-------------------------------------------------------------------------------------------------------------
-----10-10-11-11-15-15-13-13-11-11-10-10-----------10-10-11-11-10-10-13-13-11-11-10-10-----------10-10-11-11-
12-12-----------------------------------12-12-11-11-----------------------------------12-12-12-12------------
-------------------------------------------------------------------------------------------------------------
-------------------------------------------------------------------------------------------------------------
-------------------------------------------------------------------------------------------------------------

----------------------------------------------------10-10-8-8-11-11-10-10----|
-10-10-13-13-11-11-10-10-----------10-10-11-11-10-10-------------------------|
------------------------12-12-11-11------------------------------------------|
-----------------------------------------------------------------------------|
-----------------------------------------------------------------------------|
-----------------------------------------------------------------------------|

Soyez le premier à commenter

Poster un Commentaire

Votre adresse de messagerie ne sera pas publiée.




Time limit is exhausted. Please reload CAPTCHA.