Metallica – Enter Sandman

Share Button

 

Metallica – Enter Sandman

Toutes les tablatures sont ici  http://guitarepourdebutant.fr/tablatures-faciles/

 

1|---------------------------------------------------------------------------
2|---------------------------------------------------------------------------
3|---------------------------------------------------------------------------
4|------------5--------------------------------------------------------------
5|--------7---------------7--------------------------------------------------
6|----0-----------6---5------------------------------------------------------

1|---------------------------------------------------------------------------
2|---------------------------------------------------------------------------
3|---------------------------------------------------------------------------
4|---------------------------------------------------------------------------
5|--2---------------------------/7------------------------------/7-----------
6|--0---0---0---0---0---0---0--------0---0---0---0---0---0---0---------------

1|---------------------------------------------------------------------------
2|---------------------------------------------------------------------------
3|---------------------------------------------------------------------------
4|---------------------------------------------------------------------------
5|----------7------------------3\2-------------7-------------------3\2-------
6|--0---0------6---0---0---0---1\0-----0---0-------6---5---0---0---1\0-------

1|---------------------------------------------------------------------------
2|---------------------------------------------------------------------------
3|---------------------------------------------------------------------------
4|---------------------------------------------------------------------------
5|--2---2----/7--------------5-------5-------4---5---4-----------------------
6|--0---0---------6---5------3---0---3---0---2---3---2-----------------------

   3x

1|---------------------------------------------------------------------------
2|---------------------------------------------------------------------------
3|---------------------------------------------------------------------------
4|---------------------------------------------------------------------------
5|--2----------------------------3\2-------------------------------3\2-------
6|--0---0---0---0---0---0---0----1\0---0---0---0---0---0---0---0---1\0-------

1|---------------------------------------------------------------------------
2|---------------------------------------------------------------------------
3|---------------------------------------------------------------------------
4|---------------------------------------------------------------------------
5|---------------------------------5-------5-------4---5---4-----------------
6|--0---0---0---0---0---0---0------3---0---3---0---2---3---2-----------------

1|---------------------|-----------------------------------------------------
2|---------------------|-----------------------------------------------------
3|---------2-----------|-----------------------------------------------------
4|-----4---------------|-----------------------------------------------------
5|-------------3---2---|---4---4---4---4---4---2---3---4---------------------
6|--2------------------|---2---2---2---2---2---0---1---2---------------------

    3x

1|---------------------------------------------------------------------------
2|---------------------------------------------------------------------------
3|----------------------------------------------------------------2----------
4|------5---4---------5---4---------5---4---------5---2---5---2-------2------
5|--4---3---2-----4---3---2-----4---3---2----2-------------------------------
6|--2-------------2-------------2------------0-------------------------------

1|---------------------------------------------------------------------------
2|---------------------------------------------------------------------------
3|------------------------------------2--------------------------------------
4|------5---4---------5---2---5---2-------2----------------------------------
5|--4---3---2-----2----------------------------5-------5-------4---5---5-----
6|--2-------------0----------------------------3---0---3---0---2---3---3-----

 

Soyez le premier à commenter

Poster un Commentaire

Votre adresse de messagerie ne sera pas publiée.




Time limit is exhausted. Please reload CAPTCHA.