Archives

Liens commerciaux

Les 14 sujets les plus lus

Noir Désir – Un jour en France

Share Button

 

Noir Désir – Un jour en France 

Imprimer cette tablature Imprimer cette tablature
Toutes les tablatures sont ici  http://guitarepourdebutant.fr/tablatures-faciles/

||-------------------------------------------------------------------------|
||-------------------------------------------------------------------------|
||-------------------------------------------------------------------------|
||--7-8-8-8-8-7-7-7-7/12-12-12-12-7-7-7-7-8-8-8-8-7-7-7-7-3-3-3-3-3-3-3-3--|
||--7-8-8-8-8-7-7-7-7/12-12-12-12-7-7-7-7-8-8-8-8-7-7-7-7-3-3-3-3-3-3-3-3--|
||--5-6-6-6-6-5-5-5-5/10-10-10-10-5-5-5-5-6-6-6-6-5-5-5-5-1-1-1-1-1-1-1-1--|						  

|--------------------------------------------------------------------|
|--------------------------------------------------------------------|
|--------------------------------------------------------------------|
|--/7-8-8-8-8-7-7-7-7/12-12-12-12-7-7-7-7-8-8-8-8-3-3-3/12-12-12-12--|
|--/7-8-8-8-8-7-7-7-7/12-12-12-12-7-7-7-7-8-8-8-8-3-3-3/12-12-12-12--|
|--/5-6-6-6-6-5-5-5-5/10-10-10-10-5-5-5-5-6-6-6-6-1-1-1/10-10-10-10--|

||---------------------------------------------------------------------|
||---------------------------------------------------------------------|
||*--------------------------------------------------------------------|
||*-7-8-8-8-8-7-7-7-7/12-12-12-12-7-7-7-7-8-8-8-8-7-7-7-7-3-3-3-3-3-3--|
||--7-8-8-8-8-7-7-7-7/12-12-12-12-7-7-7-7-8-8-8-8-7-7-7-7-3-3-3-3-3-3--|
||--5-6-6-6-6-5-5-5-5/10-10-10-10-5-5-5-5-6-6-6-6-5-5-5-5-1-1-1-1-1-1--|						  

                                                                                   x2
|----------------------------------------------------------------------------------||
|----------------------------------------------------------------------------------||
|---------------------------------------------------------------------------------*||
|--/7-8-8-8-8-7-7-7-7/12-12-12-12-7-7-7-7-8-8-8-8-3-3-3-3/12-12-12-12-12-12-12-12-*||
|--/7-8-8-8-8-7-7-7-7/12-12-12-12-7-7-7-7-8-8-8-8-3-3-3-3/12-12-12-12-12-12-12-12--||
|--/5-6-6-6-6-5-5-5-5/10-10-10-10-5-5-5-5-6-6-6-6-1-1-1-1/10-10-10-10-10-10-10-10--||

                                                                      x2
||--------------------------------------------------------------------||
||--5-6-5----6----5----5-6-5----6----5----5-6-5----8—-8-8-------------||
||*-5-7-5----7----5----5-7-5----7----5----5-7-5----7—-7-7------------*||
||*------------------------------------------------------------12—14-*||
||---------------------------------------------------------12---------||
||--------------------------------------------------------------------||

|---------------------------------------------------------------------|
|---------------------------------------------------------------------|
|---------------------------------------------------------------------|
|--7-8-8-8-8-7-7-7-7/12-12-12-12-7-7-7-7-8-8-8-8-7-7-7-7-3-3-3-3-3-3--|
|--7-8-8-8-8-7-7-7-7/12-12-12-12-7-7-7-7-8-8-8-8-7-7-7-7-3-3-3-3-3-3--|
|--5-6-6-6-6-5-5-5-5/10-10-10-10-5-5-5-5-6-6-6-6-5-5-5-5-1-1-1-1-1-1--|						  

|----------------------------------------------------------------------------------|
|----------------------------------------------------------------------------------|
|----------------------------------------------------------------------------------|
|--/7-8-8-8-8-7-7-7-7/12-12-12-12-7-7-7-7-8-8-8-8-3-3-3-3/12-12-12-12-12-12-12-/7--|
|--/7-8-8-8-8-7-7-7-7/12-12-12-12-7-7-7-7-8-8-8-8-3-3-3-3/12-12-12-12-12-12-12-/7--|
|--/5-6-6-6-6-5-5-5-5/10-10-10-10-5-5-5-5-6-6-6-6-1-1-1-1/10-10-10-10-10-10-10-/5--|

                                                                      x2
||--------------------------------------------------------------------||
||--5-6-5----6----5----5-6-5----6----5----5-6-5----8—-8-8-------------||
||*-5-7-5----7----5----5-7-5----7----5----5-7-5----7—-7-7------------*||
||*------------------------------------------------------------12—14-*||
||---------------------------------------------------------12---------||
||--------------------------------------------------------------------||

|---------------------------------------------------------------------|
|---------------------------------------------------------------------|
|---------------------------------------------------------------------|
|--7-8-8-8-8-7-7-7-7/12-12-12-12-7-7-7-7-8-8-8-8-7-7-7-7-3-3-3-3-3-3--|
|--7-8-8-8-8-7-7-7-7/12-12-12-12-7-7-7-7-8-8-8-8-7-7-7-7-3-3-3-3-3-3--|
|--5-6-6-6-6-5-5-5-5/10-10-10-10-5-5-5-5-6-6-6-6-5-5-5-5-1-1-1-1-1-1--|						 

|----------------------------------------------------------|
|----------------------------------------------------------|
|----------------------------------------------------------|
|--/7-8-8-8-8-7-7-7-7/12-12-12-12-7-7-7-7-8-8-8-8-3-3-3-3--|
|--/7-8-8-8-8-7-7-7-7/12-12-12-12-7-7-7-7-8-8-8-8-3-3-3-3--|
|--/5-6-6-6-6-5-5-5-5/10-10-10-10-5-5-5-5-6-6-6-6-1-1-1-1--|