One Direction What makes you beautiful

Share Button
Imprimer cette tablature Imprimer cette tablature

Toutes les tablatures sont ici  http://guitarepourdebutant.fr/tablatures-faciles/

E|-------------------------------------------------|
B|-------------------------------------------------|
G|-------------------------------------------------|
D|----6---6-7---7-9--9--9-9-6---6-7---7-9--9--9--9-|
A|----7---7-7---7-9--9--9-9-7---7-7---7-9--9--9--9-|
E|----0---0-5---5-7--7--7-7-0---0-5---5-7--7--7--7-|

Chorus:
--------------------------------|
--------------------------------|
------2^4-----0-----0---2---0---|
----0-------0-----2-------------|
----------3-----------0---0-----|
--3-------------0---------------|

Turnaround: 2x
--------------3------------------|
------1^3------------------------|
-------------------0^2---2---0---|
----0-------0----2---------------|
----------3------------0---0-----|
--3-------------0----------------|

Solo: 2x
--3/5---3---1^0------------------------------------------|
------0---0-----0----------------------------------------|
------------------0-----2-4-----4-----0-2-----2---2^0-0--|
--------------------0---------0---0---------0------------|
------------3---------3----------------------------------|
--0-------------------------3-------3-----2-----2--------|

Finger plucking
----------------|
----------------|
--0--0--0--2----|
--0--0--2--0----|
-----3-----0----|
--3-----0-------|

Soyez le premier à commenter

Poster un Commentaire

Votre adresse de messagerie ne sera pas publiée.




Time limit is exhausted. Please reload CAPTCHA.