Pascal Obispo : LUCIE

Share Button

 

Pascal Obispo : LUCIE

Toutes les tablatures sont ici  http://guitarepourdebutant.fr/tablatures-faciles/

 


 

|-3-----3-|-2---7---|-2-----2-|-0---0---|-0-----0-|-0-------|
|-----5---|---0---0-|-----3---|---------|---------|---0-4---|
|---4-----|---------|---2-----|---2---0-|-----0---|---------|
|---------|-0-------|-0-------|-4-------|---2-----|---------|
|---------|---------|---------|---------|-3-------|-2---2-2-|
|-0-------|---------|---------|---------|---------|---------|

|-0-----0-|-0---2---|
|---------|-------0-|
|-----0---|-----2---|
|---2-----|---2-----|
|-3-------|-2-------|
|---------|---------|

|-7---7---|-2---2---|--------|---------|-7---7---|-2---2---|
|-8---8---|-3---3---|-0---0--|-1-----0-|-8---8---|-3---3---|
|-0-0-0-0-|---2-----|-0---0--|-0---0---|-0-0-0-0-|---2-----|
|---------|-0---0-0-|---2----|---2-----|---------|-0---0-0-|
|---------|---------|-2---2--|-3-------|---------|---------|
|---------|---------|--------|---------|---------|---------|

|-------|-------|
|-0---0-|-1---4-|
|-0---0-|---0-4-|
|---2---|---0-4-|
|-2---2-|-3---2-|
|-------|-------|

|-7---7---|-2---2---|--------|---------|-2---2---|---------|
|-8---8---|-3---3---|-0---0--|-1-----1-|-3---3---|-1-----1-|
|-0-0-0-0-|---2-----|-0---0--|-0---0---|---2-----|-2---2---|
|---------|-0---0-0-|---2----|---2-----|-0---0-0-|-2-2-----|
|---------|---------|-2---2--|-3-------|---------|---------|
|---------|---------|--------|---------|---------|---------|

|-0-----|-------|
|---1---|-1---4-|
|-----2-|-0---4-|
|-------|-2-2-4-|
|-------|-3---2-|
|-------|-------|

|-----------3-------|
|-4-5-----5---5---5-|
|-4-4---4-------4-4-|
|-4-5-5-----------5-|
|-2-----------------|
|-------------------|

 

Soyez le premier à commenter

Poster un Commentaire

Votre adresse de messagerie ne sera pas publiée.




Time limit is exhausted. Please reload CAPTCHA.