Pink Floyd Another Brick In The Wall

Share Button

Toutes les tablatures sont ici  http://guitarepourdebutant.fr/tablatures-faciles/

Imprimer cette tablature Imprimer cette tablature

Tablature  Pink Floyd  Another Brick In The Wall

 

 | -------------------------10---------------------------------
 | -13-p-10----10--------10----13b(15)--------------10-10-10---
 | ---------12----12b(14)---------------------------10-10-10---
 | ------------------------------------------------------------
 | ------------------------------------------------------------
 | ------------------------------------------------------------

 | ------------------------------------------------------------
 | -13--b(15)-b(17)-rb(13)-------13-p-10----10-----------------
 | --------------------------------------12--------------------
 | ------------------------------------------------------------
 | ------------------------------------------------------------
 | ------------------------------------------------------------

 | ------------------------------------------------------------
 | ------------------------------------------------------------
 | -10--9 ---9---------12-------------------------------------
 | --------12---10-/-12----12----------------------------------
 | ------------------------------------------------------------
 | ------------------------------------------------------------

 | ------------------------------------------------------------
 | --10----------10--10------10--10------10--12--10------------
 | --10----------10--10------10--10------10--12--10------------
 | -----12--12-----------12----------12------------------------
 | ------------------------------------------------------------
 | ------------------------------------------------------------

 | -------13b(15)-13-13----------------------------------------
 | -----x------------------13b(15)b(17)b(18)-rb(15)b(17)-------
 | ---x--------------------------------------------------------
 | -x----------------------------------------------------------
 | ------------------------------------------------------------
 | ------------------------------------------------------------
                                                       cont..
 | -------10---------------------------------------------------
 | ----10----13p10---------------------------------------------
 | -12-------------12--b(14)rb(12)-p-10---12-p-10-------10-----
 | -----------------------------------------------12-------12--
 | ------------------------------------------------------------
 | ------------------------------------------------------------

 | ------------------------------------------------------------
 | ------------------------------------------------------------
 | --12--10----------------------------------------------------
 | --12--10----------------------------------------------------
 | ----------12--10---10--8--------------------8---------------
 | --------------------------10p8-----10--10-----10p8--10------

 | ------------------------------------------------------------
 | -----------------5h6p5--------------------------6b(8)-------
 | ---------5--7---------7---7-p-5------5--5--7p5--------------
 | ----/7--------------------------7---------------------------
 | ------------------------------------------------------------
 | ------------------------------------------------------------

 | -------------------------------------15b(17)-13-------------
 | --13b(15)---13b(15)b(17)rb(13)------------------15----------
 | ------------------------------------------------------------
 | ------------------------------------------------------------
 | ------------------------------------------------------------
 | ------------------------------------------------------------

 | -----13-----15b(17)rb(15)b(17)rb(15)b(17)rb(15)----15b(17)--
 | -/15----15-------------------------------------15---------15
 | ------------------------------------------------------------
 | ------------------------------------------------------------
 | ------------------------------------------------------------
 | ------------------------------------------------------------

 | --18b(20)--(20)---20b(22)---20-p-17---20-p-17---------------
 | ------------------------------------------------------------
 | ------------------------------------------------------------
 | ------------------------------------------------------------
 | ------------------------------------------------------------
 | ------------------------------------------------------------

 | ------------------------------------------------------------
 | -------------------------------------------12--12---10------
 | -10--10--10----------------------12--10----12--12---10------
 | -------------12------------------12--10------------(10)-----
 | ----------------------10-10-10------------------------------
 | ------------------------------------------------------------

 | ------------------------------------------------------------
 | --x--x--10--------------------------------------------------
 | --x--x--10---x--x-------------------------------------------
 | -------------------12---------------------------------------
 | ---------------------------------10---8---10---8------------
 | ---------------------------------------------------10-----

Soyez le premier à commenter

Poster un Commentaire

Votre adresse de messagerie ne sera pas publiée.




Time limit is exhausted. Please reload CAPTCHA.