Psy : Gangnam Style

Share Button

 Psy : Gangnam Style

 

 

CAPO en 2ème case
Imprimer cette tablature Imprimer cette tablature

Toutes les tablatures sont ici  http://guitarepourdebutant.fr/tablatures-faciles/


e---0---0---1---3---5---|
B---1---0---1---3---5---|
G---2---1---2---4---6---| 
D---2---2---3---5---7---|
A---0---2---3---5---7---|
E---0---0---1---3---5---|
Riff
e-7-7-7---7-7-5---7-7-7---7-5/2---|---7-7-7----9--9--9---|---|
b-7-7-7---7-7-7---7-7-7---7-5/2---|---8-8-8---10-10-10---|---|
g-7-7-7---7-7-7---7-7-7---7-6/2---|---9-9-9---11-11-11---|---|
d-9-9-9---9-9-7---9-9-9---9-7/4---|---9-9-9---11-11-11---|---|
a-9-9-9---9-9-5---9-9-9---9-7/4---|---7-7-7----9--9--9---|---|
E-7-7-7---7-7-x---7-7-7---7-5/2---|---x-x-x----x--x--x---|---|