Queen Bohemian Rhapsody

Share Button

 

Queen – ‘Bohemian Rhapsody’

 

Toutes les tablatures sont ici  http://guitarepourdebutant.fr/tablatures-faciles/

 

 

e-----------------------------------------13-13-15-16-18-20-20-18-16p15h16--|
B--------------11---13--13-15-16-13-15-16-----------------------------------|
g--12--10--------12---------------------------------------------------------|
d----------13---------------------------------------------------------------|
a---------------------------------------------------------------------------|
E---------------------------------------------------------------------------|

e-13----------------------------15-16-18----------------15-16-18-18s20-------|
b---16p15-13-----------15-16-18----------------15-16-18----------------15-16-|
g------------15--15-17-------------------15-17-------------------------------|
d----------------------------------------------------------------------------|
a----------------------------------------------------------------------------|
E----------------------------------------------------------------------------|

e-------------------13----------13-----------------------------------------|
b-13-15-16-13-15-16-------------------14-----------------------------------|
g----------------------10-12-13----13--------------10----------------------|
d-------------------------------------------11-----10----------------------|
a--------------------------------------------------8-----------------------|