Archives

Liens commerciaux

Les 14 sujets les plus lus

Red Hot Chili Peppers : Californication

Share Button

Red Hot Chili Peppers :  Californication

Guitare pour debutant : tablature facile .

Imprimer cette tablature Imprimer cette tablature
E||----------------------------|------------------------|
B||--------0--1----------------|------------------------|
G||----------------------------|--------0--2------------|
D||-----2-----2----2--0h2h0----|-----------0----0-------|
A||--0----------------------3--|-----3-------------3----|
E||----------------------------|--1---------------------|

----------------------------|------------------------|
--------0--1----------------|------------------------|
----------------------------|--------0--2------------|
-----2-----2----2--0h2h0----|-----------3----3--0----|
--0----------------------3--|-----3------------------|
----------------------------|--1---------------------|

----------------------------|------------------------|
--------0--1----------------|------------------------|
----------------------------|--------0--2------------|
-----2-----2----2--0h2h0----|-----------0----0-------|
--0----------------------3--|-----3-------------3----|
----------------------------|--1---------------------|

----------------------------|------------------------|
--------0--1----------------|------------------------|
----------------------------|--------0--2------------|
-----2-----2----2--0h2h0----|-----------3----3--0----|
--0----------------------3--|-----3------------------|
----------------------------|--1---------------------|

----------------------------|------------------------|
--------0--1----------------|------------------------|
----------------------------|--------0--2------------|
-----2-----2----2--0h2h0----|-----------0----0-------|
--0----------------------3--|-----3-------------3----|
----------------------------|--1---------------------|

----------------------------|------------------------|
--------0--1----------------|------------------------|
----------------------------|--------0--2------------|
-----2-----2----2--0h2h0----|-----------3----3--0----|
--0----------------------3--|-----3------------------|
----------------------------|--1---------------------|

--------------------------|--------------------1----|
--------5-----------------|-----------------3--3----|
--------------------4-----|--------2-----------2----|
-----5-----5--------------|--------------0-----0----|
--3--------------5-----5--|-----3-----3-------------|
--------------3-----------|--1----------------------|

----------------------------|------------------------|
--------0--1----------------|------------------------|
----------------------------|--------0--2------------|
-----2-----2----2--0h2h0----|-----------0----0-------|
--0----------------------3--|-----3-------------3----|
----------------------------|--1---------------------|

----------------------------|------------------------|
--------0--1----------------|------------------------|
----------------------------|--------0--2------------|
-----2-----2----2--0h2h0----|-----------3----3--0----|
--0----------------------3--|-----3------------------|
----------------------------|--1---------------------|

----------------------------|------------------------|
--------0--1----------------|------------------------|
----------------------------|--------0--2------------|
-----2-----2----2--0h2h0----|-----------0----0-------|
--0----------------------3--|-----3-------------3----|
----------------------------|--1---------------------|

----------------------------|------------------------|
--------0--1----------------|------------------------|
----------------------------|--------0--2------------|
-----2-----2----2--0h2h0----|-----------3----3--0----|
--0----------------------3--|-----3------------------|
----------------------------|--1---------------------|

--------------------------|--------------------1----|
--------5-----------------|-----------------3--3----|
--------------------4-----|--------2-----------2----|
-----5-----5--------------|--------------0-----0----|
--3--------------5-----5--|-----3-----3-------------|
--------------3-----------|--1----------------------|

--0--0-0-0--0-0-0-0-0--0--0-0-|--1--1-1-1--1-1-1-1-1--1--1-1-|
--1--1-1-1--1-1-1-1-1--1--1-1-|--1--1-1-1--1-1-1-1-1--1--1-1-|
--2--2-2-2--2-2-2-2-2--2--2-2-|--2--2-2-2--2-2-2-2-2--2--2-2-|
--2--2-2-2--2-2-2-2-2--2--2-2-|--3--3-3-3--3-3-3-3-3--3--3-3-|
--0--0-0-0--0-0-0-0-0--0--0-0-|--3--3-3-3--3-3-3-3-3--3--3-3-|
------------------------------|--1--1-1-1--1-1-1-1-1--1--1-1-|

--0--0-0-0--0-0-0-0-0--0--0-0-|--1--1-1-1--1-1-1-1-1--1----|
--1--1-1-1--1-1-1-1-1--1--1-1-|--1--1-1-1--1-1-1-1-1--1----|
--2--2-2-2--2-2-2-2-2--2--2-2-|--2--2-2-2--2-2-2-2-2--2----|
--2--2-2-2--2-2-2-2-2--2--2-2-|--3--3-3-3--3-3-3-3-3--3----|
--0--0-0-0--0-0-0-0-0--0--0-0-|--3--3-3-3--3-3-3-3-3--3----|
------------------------------|--1--1-1-1--1-1-1-1-1--1----|

--0--0-0-0--0-0-0-0-0--0--0-0-|--1--1-1-1--1-1-1-1-1--1--1-1-|
--1--1-1-1--1-1-1-1-1--1--1-1-|--1--1-1-1--1-1-1-1-1--1--1-1-|
--2--2-2-2--2-2-2-2-2--2--2-2-|--2--2-2-2--2-2-2-2-2--2--2-2-|
--2--2-2-2--2-2-2-2-2--2--2-2-|--3--3-3-3--3-3-3-3-3--3--3-3-|
--0--0-0-0--0-0-0-0-0--0--0-0-|--3--3-3-3--3-3-3-3-3--3--3-3-|
------------------------------|--1--1-1-1--1-1-1-1-1--1--1-1-|

--0--0-0-0--0-0-0-0-0--0--0-0-|--1--1-1-1--1-1-1-1-1--1----|
--1--1-1-1--1-1-1-1-1--1--1-1-|--1--1-1-1--1-1-1-1-1--1----|
--2--2-2-2--2-2-2-2-2--2--2-2-|--2--2-2-2--2-2-2-2-2--2----|
--2--2-2-2--2-2-2-2-2--2--2-2-|--3--3-3-3--3-3-3-3-3--3----|
--0--0-0-0--0-0-0-0-0--0--0-0-|--3--3-3-3--3-3-3-3-3--3----|
------------------------------|--1--1-1-1--1-1-1-1-1--1----|

--0--0-0-0--0-0-0-0-0--0--0-0-|--1--1-1-1--1-1-1-1-1--1--1-1-|
--1--1-1-1--1-1-1-1-1--1--1-1-|--1--1-1-1--1-1-1-1-1--1--1-1-|
--2--2-2-2--2-2-2-2-2--2--2-2-|--2--2-2-2--2-2-2-2-2--2--2-2-|
--2--2-2-2--2-2-2-2-2--2--2-2-|--3--3-3-3--3-3-3-3-3--3--3-3-|
--0--0-0-0--0-0-0-0-0--0--0-0-|--3--3-3-3--3-3-3-3-3--3--3-3-|
------------------------------|--1--1-1-1--1-1-1-1-1--1--1-1-|

--0--0-0-0--0-0-0-0-0--0--0-0-|--1--1-1-1--1-1-1-1-1--1----|
--1--1-1-1--1-1-1-1-1--1--1-1-|--1--1-1-1--1-1-1-1-1--1----|
--2--2-2-2--2-2-2-2-2--2--2-2-|--2--2-2-2--2-2-2-2-2--2----|
--2--2-2-2--2-2-2-2-2--2--2-2-|--3--3-3-3--3-3-3-3-3--3----|
--0--0-0-0--0-0-0-0-0--0--0-0-|--3--3-3-3--3-3-3-3-3--3----|
------------------------------|--1--1-1-1--1-1-1-1-1--1----|

--3----3----3----3----|--1----1----0----0----|--3----3----1------1--|
--1----1----0----0----|--3----3----1----1----|--1----1----0------3--|
--0----0----0----0----|--2----2----2----2----|--0----0----0------2--|
--2----2----0----0----|--0----0----2----2----|--2----2----0------0--|
--3----3----2----2----|------------0----0----|--3----3----2---------|
----------------------|----------------------|----------------------|

------------------|----------------------------|------------------------|
------------------|--------0--1----------------|------------------------|
------------------|----------------------------|--------0--2------------|
------------------|-----2-----2----2--0h2h0----|-----------0----0-------|
------------------|--0----------------------3--|-----3-------------3----|
------------------|----------------------------|--1---------------------|