Renaud – It is not because you are

Share Button

Renaud – It is not because you are

Toutes les tablatures sont ici  http://guitarepourdebutant.fr/tablatures-faciles/

INTRO
—–

 

e-------1-----|-------1-----|-------3-----|-------------|
B-----2---2---|-----3---3---|-----3---3---|-------1-----|
G---3-------3-|---2-------2-|---3-------3-|-----0---0---|
D-3-----------|-0-----------|-------------|---2-------2-|
A-------------|-------------|-------------|-3-----------|
E-------------|-------------|-3-----------|-------------|

e-------1-----|-------1-----|-------5-----|-------------|
B-----2---2---|-----3---3---|-----3---3---|-------1-----|
G---3-------3-|---2-------2-|---3-------3-|-----0---0---|
D-3-----------|-0-----------|-------------|---2-------2-|
A-------------|-------------|-5-----------|-3-----------|
E-------------|-------------|-------------|-------------|

e-------1-----|-------1-----|-------3-----|---------|
B-----2---2---|-----3---3---|-----3---3---|-------1-|
G---3-------3-|---2-------2-|---3-------3-|-----2---|
D-3-----------|-0-----------|-------------|---2-----|
A-------------|-------------|-5-----------|-3-------|
E-------------|-------------|-------------|---------|

e-------1-----|-------1-----|-------1-----|-------------|
B-----2---2---|-----3---3---|-----3---3---|-------1-----|
G---3-------3-|---2-------2-|---3-------3-|-----0---0---|
D-3-----------|-0-----------|-------------|---2-------2-|
A-------------|-------------|-1-----------|-3-----------|
E-------------|-------------|-------------|-------------|

e-------1-----|-------1-----|-------3-----|-------------|
B-----2---2---|-----3---3---|-----3---3---|-------1-----|
G---3-------3-|---2-------2-|---3-------3-|-----0---0---|
D-3-----------|-0-----------|-------------|---2-------2-|
A-------------|-------------|-------------|-3-----------|
E-------------|-------------|-3-----------|-------------|

e-------1-----|-------1-----|-------5-----|-------------|
B-----2---2---|-----3---3---|-----3---3---|-------1-----|
G---3-------3-|---2-------2-|---3-------3-|-----0---0---|
D-3-----------|-0-----------|-------------|---2-------2-|
A-------------|-------------|-5-----------|-3-----------|
E-------------|-------------|-------------|-------------|

e-------1-----|-------1-----|-------3-----|---------|
B-----2---2---|-----3---3---|-----3---3---|-------1-|
G---3-------3-|---2-------2-|---3-------3-|-----2---|
D-3-----------|-0-----------|-------------|---2-----|
A-------------|-------------|-5-----------|-3-------|
E-------------|-------------|-------------|---------|