Archives

Les 14 sujets les plus lus

Une note de pub

Damien Saez : A ton nom

Share Button

Damien Saez : A ton nom

								




Imprimer cette tablature Imprimer cette tablature




Toutes les tablatures sont ici  http://guitarepourdebutant.fr/tablatures-faciles/

E -0-----------0-0-------------------0------------0------------------------
b --------1-------------1-------------------1-----------1--3--1--0--------0
g -----2-----2-------2-------------------0-----0-----0-----------------0---
d ------------------------------------------------------------------0------
a -0-------------0-----------2---0---3------------3------------------------
e ---------------------------------------------------------------3---------

E -------------------------------------------------------------------------
b -0---3----------3--1---1-----1ho3po1-------------------------------------
g ---0---------0------------2----------------------------------------------
d ----------0--------------------------------------------------------------
a -----------------------0-------------------------------------------------
e -3------3----------------------------------------------------------------

Refrain
E -0-----------0------------------0-----------0--0-------------0--------0-0
b -------1-----------1-----1------------1--------------1------------1------
g ----0-----0-----0------------------2-----2--------2-------------0---0----
d -------------------------------------------------------------3----------3
a -3-----------3--------2-----0---0--------------0-------2--0--------------
e -------------------------------------------------------------------------

E -0-----------0-0-------------------0------------0--------------3---------
b --------1-------------1-------------------1-----------1--3--1--------0---
g -----2-----2-------2-------------------0-----0-----0---------------0---0-
d -------------------------------------------------------------------------
a -0-------------0-----------2---0---3------------3------------------------
e ---------------------------------------------------------------3---------

E 33-----3-1-0-----------0-------------------------------------------------
b -----0----------1------------1ho3po1-------------------------------------
g ---0---------2-----2------2----------------------------------------------
d -------------------------------------------------------------------------
a -----------0-----------0-------------------------------------------------
e -3-----------------------------------------------------------------------