Damien Saez : Montée là haut

Share Button
Imprimer cette tablature Imprimer cette tablature

Toutes les tablatures sont ici  http://guitarepourdebutant.fr/tablatures-faciles/

Damien Saez : Montée là haut 

e:-----------1----0----------0----------------------------------------------1-0
B:------3-------3--------3-------1-3--------3----1----1-0--------0-----1-------
G:----2---2---2--------0---0---0---------0----0----0----------0-----0----0-----
D:--0--------------------------------------------------------------------------
A:-------------------3---------------------------------------------------------
E:------------------------------------3--------------------3-------------------

e:------------0----1-0--------------------0----------------------0----------------------0-1
B:-------3---------------------3-----3-------1-------0-----1--------1--------1----3--------
G:----0----0----0-----------0-----0----0----------0-----0-----0-----------0----0-----0-----
D:-----------------------------------------------------------------------------------------
A:--3--------------------2---------------------0-----------------------0-------------------
E:-----------------------------------------------------------------------------------------

Soyez le premier à commenter

Poster un Commentaire

Votre adresse de messagerie ne sera pas publiée.




Time limit is exhausted. Please reload CAPTCHA.