Archives

Liens commerciaux

Soan : Emily

Share Button
Imprimer cette tablature Imprimer cette tablature
e||-----4--4------4--4--------------------------4--4------4-------------------------
B||-----5--5------5--5------5--5------4--4------5--5------5--------2--2---------4---
G||-----6--6------6--6------6--6------5--5------6--6------6--------2--2---------5---
D||------------6------------7--7------6--6-------------6-----------4--4------6------
A||--4---------------------------------------4---------------4----------------------
E||----------------------5---------4----------------------------2---------4---------

e||-----4--4------4---------------------------4--4------4--4--------------------------||
B||-----5--5------5---------------------------5--5------5--5------2--2------------4---||
G||-----6--6------6---------------------------6--6------6--6------2--2---------5------||
D||------------6-----------7-----------4--------------------------4--4------6---------||
A||--4---------------4--------7-----4------4---------4--------------------------------||
E||---------------------5--------3-----------------------------2---------4------------||

e||-----4--4------4--4--------------------------4--4------4-------------------------
B||-----5--5------5--5------5--5------4--4------5--5------5--------2---------4--4---
G||-----6--6------6--6------6--6------5--5------6--6------6--------2---------5--5---
D||------------6------------7--7------6--6-------------------------4---------6--6---
A||--4---------------------------------------4---------4----------------------------
E||----------------------5---------4--------------------------4--2-----5--4---------

e||-----4--4------4--4--------------------------4--4------4-------------------------
B||-----5--5------5--5------5--5------4--4------5--5------5--------2---------4--4---
G||-----6--6------6--6------6--6------5--5------6--6------6--------2---------5--5---
D||-------------------------7--7------6--6-------------------------4---------6--6---
A||--4---------4-----------------------------4---------4----------------------------
E||----------------------5---------4--------------------------4--2-----5--4---------

e||-----4--4------4--4--------------------------4--4------4-------------------------
B||-----5--5------5--5------5--5------4--4------5--5------5--------2---------4--4---
G||-----6--6------6--6------6--6------5--5------6--6------6--------2---------5--5---
D||-------------------------7--7------6--6-------------6-----------4---------6--6---
A||--4---------4-----------------------------4--------------------------------------
E||----------------------5---------4--------------------------4--2-----5--4---------

e||-----4--4------4--4--------------------------4--4------4---------------------------||
B||-----5--5------5--5------5--5------4--4------5--5------5--------2---------------4--||
G||-----6--6------6--6------6--6------5--5------6--6------6--------2------------5-----||
D||------------6------------7--7------6--6-------------6-----------4---------6--------||
A||--4---------------------------------------4----------------------------------------||
E||----------------------5---------4--------------------------4--2-----5--4-----------||

e||-----------4------------------7------------------2------------------4--------
B||--------5-----5------------9-----9------------4-----4------------5-----5-----
G||-----6-----------6------9-----------9------4-----------4------6-----------6--
D||-----------------------------------------------------------------------------
A||--4------------------7------------------2------------------4-----------------
E||-----------------------------------------------------------------------------

e||-----------4----------------------------------------------
B||--------5-----5---------------0---------------------------
G||-----6-----------6---------1-----1---------------5--------
D||------------------------2-----------2---------6-----6-----
A||--4------------------2---------------------6-----------6--
E||----------------------------------------4-----------------

e||-----4--4------4--4--------------------------4--4------4------------------------
B||-----5--5------5--5------5--5------4--4------5--5------5--------2--2---------4--
G||-----6--6------6--6------6--6------5--5------6--6------6--------2--2---------5--
D||-------------------------7--7------6--6-------------------------4--4------6-----
A||--4---------4-----------------------------4---------4---------------------------
E||----------------------5---------4-------------------------4--2---------4--------

e||-----4--4------4---------------------------4--4------4--4-----------------------||
B||-----5--5------5---------------------------5--5------5--5------2--2----------4--||
G||-----6--6------6---------------------------6--6------6--6------2--2----------5--||
D||------------------------7-----------4--------------------------4--4-------6-----||
A||--4---------4-----4--------7-----4------4---------4-----------------------------||
E||---------------------5--------3-----------------------------2----------4--------||