Archives

Liens commerciaux

Benabar : Les filles à quoi ça sert

Share Button

Imprimer cette tablature Imprimer cette tablature

Toutes les tablatures sont ici http://guitarepourdebutant.fr/tablatures-faciles/

Tablature Benabar : Les filles à quoi ça sert
 G                D                Em               Em
e|--------3-------|--------2-------|--------0-------|--------0-------|
B|--------3-------|--------3-------|--------0-------|--------0-------|
G|----4-------4---|----2-------2---|----0-------0---|----0-------0---|
D|5---------------|4---------------|2---------------|2---------------|
A|----------------|----------------|----------------|----------------|
E|----------------|----------------|----------------|----------------|

  C                D                G                G
e|--------0-------|--------2-------|--------3-------|----------------|
B|--------1-------|--------3-------|--------0-------|--------0-------|
G|----0-------0---|----2-------2---|----0-------0---|----0h2-----0---|
D|----------------|0---------------|----------------|0h2-------------|
A|3---------------|----------------|----------------|----------------|
E|----------------|----------------|3---------------|----------------|

  G                D                Em               Em
e|--------10------|8-------7---3---|----------------|----------------|
B|----------------|----------------|----------------|----------------|
G|----------------|----------------|----------------|----------------|
D|----------------|----------------|----------------|----------------|
A|----------------|----------------|----------------|----------------|
E|----------------|----------------|----------------|----------------|

  C                D                G                G
e|--------10------|8-------7---3---|----------------|----------------|
B|----------------|----------------|----------------|----------------|
G|----------------|----------------|----------------|----------------|
D|----------------|----------------|----------------|----------------|
A|----------------|----------------|----------------|----------------|
E|----------------|----------------|----------------|----------------|