Alanis Morissette – Ironic

Share Button

 

 

Alanis Morissette – Ironic

Toutes les tablatures sont ici  http://guitarepourdebutant.fr/tablatures-faciles/

 

INTRO

|–3—–2——————–|
|————–3—————|
|———————0—–2-|
|—–0—–0—————–|
|–3—–3—–3————–|
|——————————-|


 |-----------------|-----------------|-----------------|-----------------|
 |-------0---------|-3---------------|-3--3--3---------|----3------------|
 |-2-----2---------|-2-----0---------|-2---2-2---------|-2-----0---------|
 |-0---------------|-------0-------0-|-----------------|-0-----0---------|
 |-----------------|-----------------|-----------------|-----------------|
 |-2-----3---------|-2-----0---------|-2-----3---------|-2-----0---------|

     |-----------------|-----------------|-----------------|-----------------|
     |-3-----0---------|-3---------------|-----------------|----3------------|
     |-2--2--2---------|-2-----0---------|-2--2--2---------|-2-----0---------|
     |-----------------|-0-----0---------|-0-----0---------|-0-----0---------|
     |-----------------|-----------------|-----------------|-----------------|
     |-2-----3---------|-2-----0---------|-2-----3---------|-2-----0---------|

        |-----------------|-----------------|
        |----3--------3---|---3-------------|
        |-2-----2---2---2-|-2-----0---------|
        |-0-----0---------|-0-----0---------|
        |-----------------|-----------------|
        |-2-----3---------|-2-----0---------|

CHORUS
|------------------|----------------|------------------|---------------------|
|----3--0----0-----|----0-----------|----3--0----------|----0--------0-------|
|-2-----2---2--2-0-|-2-----0--------|-2-----2----------|-2-----0---2-----2-0-|
|-0----------------|-0-----0--------|-0----------------|-0-----0-------------|
|------------------|----------------|------------------|---------------------|
|-2-----3----------|-2-----0--------|-2-----3----------|-2-----0-------------|

|----------------|---------------0-------|-------------------|----------------
|----3--0--------|-----0-------3-----3-0-|----3--0-----------|-----0----------
|-2-----2--------|--2-----0--------------|-2-----2-----------|--2-----0-------
|-0--------------|--0-----0--------------|-0-----------------|--0-----0-------
|----------------|-----------------------|-------------------|----------------
|-2-----3--------|--2-----0--------------|-2-----3-----------|--2-----0-------

             |-------------------5-3h5-|-----------------|
             |-----3----0-----0h3------|----0------------|
             |-2--------2--------------|-2-----0---------|
             |-0-----------------------|-0---------------|
             |-------------------------|-------0---------|
             |-2--------3--------------|-2-----0---------|

|--3--2--------|
|--------3-----|
|-----------0--|
|--------------|
|--------------|
|--------------|

|-------------|--------------|
|---3--0~~~~--|---0----------|
|-2-----------|-2----0~~~~---|
|-------------|--------------|
|-------------|--------------|
|-------------|--------------|

|-----------------|-----------------|-----------3-2p0--|-----------------|
|----3-----3------|----3-----3------|----3--3--3-----3-|----3------------|
|-2-----2---------|-2-----0---------|-2-----2----------|-2-----0---------|
|-0-----0---------|-0-----2---------|-0----------------|-0-----0---------|
|-----------------|-----------------|------------------|-----------------|
|-2-----3---------|-2-----0---------|-2-----3----------|-2-----0---------|