Archives

Liens commerciaux

Les 14 sujets les plus lus

The Rolling Stones : Paint It Black

Share Button

The Rolling Stones :  Paint It Black

 

Imprimer cette tablature Imprimer cette tablature
Intro :

mi : |------0---1---3---1---0---------------0-|
si : |--3-----------------------3---3--2--3---|
sol: |----------------------------2-----------|
ré : |----0----0----0----0----0---------------|
la : |----------------------------------------|
Mi : |---------------------------------------------------|

mi : |------0---1---3---1---0---------------0----------------------|
si : |--3-----------------------3---3--2--3-------0^2^3/5---3p2p0^2|
sol: |----------------------------2--------------------------------|
ré : |----0----0----0----0----0------------------------------------|
la : |-------------------------------------------------------------|
Mi : |-------------------------------------------------------------|

Rythmique :

Couplet (x2 ):

        ↓ ↓ ↓ ↑ ↓ ↑ ↓ ↓ ↓ ↑ ↓ ↑   ↓ ↓ ↓ ↑ ↓ ↑ ↓ ↓ ↓ ↑ ↓ ↑

mi : |--1-1-1-1-1-1-1-1-1-1-1-1---0-0-0-0-0-0-0-0-0-0-0-0--|
si : |--3-3-3-3-3-3-3-3-3-3-3-3---2-2-2-2-2-2-2-2-2-2-2-2--|
sol: |--2-2-2-2-2-2-2-2-2-2-2-2---0-0-0-0-0-0-0-0-0-0-0-0--|
ré : |--0-0-0-0-0-0-0-0-0-0-0-0---2-2-2-2-2-2-2-2-2-2-2-2--|
la : |-----------------------------------------------------|
Mi : |-----------------------------------------------------|

Refrain : 

          ↓     ↓ ↑ ↓ ↑     ↓    ↓ ↑ ↓ ↑

 |----1-----0-0-0-0-----1----0-0-0-0--|
 |----3-----1-1-1-1-----1----1-1-1-1--|
 |----2-----0-0-0-0-----2----0-0-0-0--| 
 |----0-----2-2-2-2-----3----2-2-2-2--|
 |-0-----3--3-3-3-3--3--3--3-3-3-3-3--|
 |----------------------1-------------|

          ↓     ↓ ↑ ↓ ↑     ↓ ↓ ↓ ↑ ↓ ↑ ↓ ↓ ↓ ↑ ↓ ↑   ↓ ↓ ↓ ↑ ↓ ↑ ↓ ↓ ↓ ↑ ↓ ↑

 |----1-----0-0-0-0-----3-3-3-3-3-3-3-3-3-3-3-3---0-0-0-0-0-0-0-0-0-0-0-0--|        
 |----3-----1-1-1-1-----0-0-0-0-0-0-0-0-0-0-0-0---2-2-2-2-2-2-2-2-2-2-2-2--|
 |----2-----0-0-0-0-----0-0-0-0-0-0-0-0-0-0-0-0---0-0-0-0-0-0-0-0-0-0-0-0--|
 |----0-----2-2-2-2-----0-0-0-0-0-0-0-0-0-0-0-0---2-2-2-2-2-2-2-2-2-2-2-2--|
 |-0-----3--3-3-3-3-----2-2-2-2-2-2-2-2-2-2-2-2----------------------------|
 |----------------------3-3-3-3-3-3-3-3-3-3-3-3----------------------------|