Maroon 5 Payphone

Share Button
Imprimer cette tablature Imprimer cette tablature

Toutes les tablatures sont ici  http://guitarepourdebutant.fr/tablatures-faciles/

 

Tablature Maroon 5 Payphone

Capo : 4 eme cases

 

E|----------------3----|------3--------------|------3---------3----|----------------3----|
B|---------------------|-3-------------------|-----------3---------|---------------------|
G|-----------0---------|---------------------|-0-------------------|-----------0---------|
D|------2--------------|----------------0----|---------------------|------2--------------|
A|-3-------------------|---------------------|---------------------|---------------------|
E|---------------------|-----------3---------|---------------------|-0-------------------|

E|------3--------------|------3----2---------|-3-------------------|
B|-3-------------------|-3--------------3----|---------------------|
G|----------------2----|---------------------|---------------------|
D|-----------0---------|---------------------|---------------------|
A|---------------------|---------------------|---------------------|
E|---------------------|---------------------|---------------------|

	

Soyez le premier à commenter

Poster un Commentaire

Votre adresse de messagerie ne sera pas publiée.




Time limit is exhausted. Please reload CAPTCHA.