Tokio Hotel : Durch Den Monsun

Share Button
Imprimer cette tablature Imprimer cette tablature

Tablature niveau intermédiaire  Tokio Hotel : Durch Den Monsun

 

|---------------------------|
|---------------------------|
|---------------------------|
|-666-777-66---222-333--22--|x4
|-777-777-77---333-333--33--|
|-777-777-77---33--333--33--|

|----------------|
|----------------|
|----------------|
|--5—------2-----|
|--6-x8----3-x8--|
|--6-------3-----|

|---------------------------|
|---------------------------|
|---------------------------|
|-666-777-66---222-333--22--|x3
|-777-777-77---333-333--33--|
|-777-777-77---333-333--33--|

Avant refrain
|--------|
|--------|
|-2-x8---|
|-2------|
|--------|
|--------|

Refrain
|---------------------------|
|---------------------------|
|--5-----7-----9--—--4—----—|x2
|--5-x8—-7-x8—-9-x8—-4-x8—-—|
|--3-----5-----7-----2------|
|---------------------------|

Deuxieme intro
|---------------|
|---------------|
|--5-----7-----—|
|--5-x8—-7---—-—|
|--3-----5------|
|---------------|

Couplet
|---------------------------|
|---------------------------|
|---------------------------|
|-666-777-66---222-333--22--|x5
|-777-777-77---333-333--33--|
|-777-777-77---33--333--33--|

|----------------|
|----------------|
|----------------|
|--5—------2-----|
|--6-x8----3-x8--|
|--6-------3-----|

|---------------------------|
|---------------------------|
|---------------------------|
|-666-777-66---222-333--22--|x3
|-777-777-77---333-333--33--|
|-777-777-77---33--333--33--|

Avant refrain
|--------|
|--------|
|-2-x8---|
|-2------|
|--------|
|--------|

Refrain
|---------------------------|
|---------------------------|
|--5-----7-----9--—--4—----—|x3
|--5-x8—-7-x8—-9-x8—-4-x8—-—|
|--3-----5-----7-----2------|
|---------------------------|

Puis
|---------------|
|---------------|
|--5-----7-----—|
|--5-x8—-7-x8--—|
|--3-----5------|
|---------------|

Couplet
|---------------------------|
|---------------------------|
|---------------------------|
|-666-777-66---222-333--22--|x5
|-777-777-77---333-333--33--|
|-777-777-77---33--333--33--|

|---------------------------|
|---------------------------|
|---------------------------|
|--666—777-66---222222-x-2--|
|--777-777-77---333333-x-3--|
|--777-777-77---333333-x-3--|

|--------------|
|--------------|
|--11-12-11-11-|
|--11-12-11-9--| x3
|--9—-10—9—-9--|
|--------------|

|---------|
|---------|
|-----11~-|
|-----9-~-| 
|--—-—9-~-|
|---------|

Refrain
|---------------------------|
|---------------------------|
|--5-----7-----9--—--4—----—|x3
|--5-x8—-7-x8—-9-x8—-4-x8—-—|
|--3-----5-----7-----2------|
|---------------------------|

Puis
|---------------|
|---------------|
|--5-----7-----—|
|--5-x8—-7-x8--—|
|--3-----5------|
|---------------|

|---------------------------|
|---------------------------|
|---------------------------|
|-666-777-66---222-333--22--|x3
|-777-777-77---333-333--33--|
|-777-777-77---33--333--33--|

|---------------------------|
|---------------------------|
|---------------------------|
|--666—777-66---222222-x-2--|
|--777-777-77---333333-x-3--|
|--777-777-77---333333-x-3--|


	

Soyez le premier à commenter

Poster un Commentaire

Votre adresse de messagerie ne sera pas publiée.




Time limit is exhausted. Please reload CAPTCHA.