Guitare pour Débutant

Vous débutez la guitare ou vous souhaitez progresser ?

Tété – Le meilleur des mondes

Share Button

 

Le meilleur des mondes

Tété

 
 

Toutes les tablatures sont ici  http://guitarepourdebutant.fr/tablatures-faciles/

:-----------------------------------------------------------------------------------------------:
:----x1-----------1-1-1--------0---0-0-0----0-0-0---1--1-1-1----1-1-1----------0----------------:
:----x0-----------0-0-0--0-----0h2-0-0-2/4--2-0-0---0--0-0-0----0-0-0---0--------0--------------:
:----x3-----------3-2-0-----------------------------3-----------3-2-0--0-----0---------2-2------:
:----x3----------------1~-2-------------------------3-------------------------------------------:
:-------------------------3----------------------------------------------3-3--------------------:

:------0----------------------------------------------------------------------------------------:
:---0--1-0-------1-1-1----1-1-1-----0---0-0-0--0---0-0-0---1--1-1-1----1-1-1------------0-------:
:---0--0-0-------0-0-0----0-0-0-----2/4-2-0-0--2/4-2-0-0---0--0-0-0----0-0-0--0-----------0-----:
:----------------3--------3-2-0-0--------------------------3-----------3-2-0-0--------0---------:
:----------------------------------------------------------3------------------------------------:
:----------1-1--------------------------------------------------------------------3-3-----------:

:-----------0-----------------------------------------------------------------------------------:
:--------0--1-0-------1-1-1----1-1-1------0---0-0-0--0---0-0-0---1--1-1-1----1-1-1--------------:
:--------0--0-0-------0-0-0----0-0-0------2/4-2-0-0--2/4-2-0-0---0--0-0-0----0-0-0--------------:
:---2-2---------------3--------3-2-0-0---------------------------3-----------3-2-0--------------:
:----------------------------------------------------------------3------------------------------:
:----------------1-1---------------------------------------------------------------------3-3----:

:--------------------0--------------------------------------------------------------------------:
:-----0-----------0--1-0-------1--1---1---------1-----1---0---0-0-0-0---0-0-0---1--1-1-1--1-1-1-:
:-------0---------0--0-0-------0--0h2-0---------0---0-----2/4-2-0-0-2/4-2-0-0---0--0-0-0--0-0-0-:
:--0---------2-2---------------3--3-------------2h3-----------------------------3---------3-2-0-:
:-------------------------------------------------------------------------------3---------------:
:--------------------------1-1------------------------------------------------------------------:

:-----------------------------------------------------------------------------------------------:
:-------0---------0-1-0-------1-1-1---1-1-1--0---0-0-0-0---0-0-0---1--1-1-1--1-1-1--------------:
:---------0-------0-0-0-------0-0-0---0-0-0--2/4-2-0-0-2/4-2-0-0---0--0-0-0--0-0-0--------------:
:-----0------2-2----------------------3-2-0------------------------3---------3-2-0--------------:
:------------------------------------------------------------------3----------------------------:
:-3-3-------------------1-1-----------------------------------------------------------------3-3-:

:-----------------------------------------------------------------------------------------------:
:-------0-------------0-1-0--------1--1---1---1-1-1---0---0-0-0-0---0-0-0---1--1-1-1--1-1-1-----:
:---------0-----------0-0-0--------0--0h2-0---0-0-0---2/4-2-0-0-2/4-2-0-0---0--0-0-0--0-0-0-----:
:---0------------2-2---------------3--3-------3-2-0-------------------------3---------3-2-0-----:
:---------------------------------------------------------------------------3-------------------:
:----------------------------1-1----------------------------------------------------------------:

:-----------------------------------------------------------------------------------------------:
:-------0---------0-1-0-------1-1-1---1-1-1------1------1--1--1-------1----1--1--1---------0----:
:---------0-------0-0-0-------0-0-0---0-0-0------2------0--0--0-------0----0--0--0---------0----:
:-----0------2-2----------------------3-2-0------3--------------------2-------------------------:
:------------------------------------------------3----------------------------------------------:
:-3-3-------------------1-1----------------------1-------------------------------------3--------:

:-----------------------------------------------------------------------------------------------:
:--0----0-------0----0----------1----1--1---1----1---1---1---1------------0-0-----0---0---0-0-0-:
:--0h2--0-------2/4-----2----0--0----0--0---0----0---0---0---0------------0-0h2---0---2/4-2-0-0-:
:-------------------------------3----------------2----------------------------------------------:
:-------------------------------3---------------------------------------------------------------:
:----------------------------------------------------------------------3------------------------:

:-------------------------------|--------------------------------------------------------------|:
:--0---0-0-0-----0----0--0--0---|--------1-----1-------1---------1-----------0-0-0-0---0-0-0---|:
:--2/4-2-0-0-----2/4--2--0--0---|--------0-----0-------0---------0-----------2-0-0-2/4-2-0-0---|:
:-------------------------------|--------2-------------3---------------------------------------|:
:-------------------------------|----------------------3--------------2------------------------|:
:-------------------------------|-------------------------------------3------------------------|:

:----------------------------------------------|------------------------------------------------:
:---------1-----1-------1--1------1------------|-1-1-1--------0-0-0-0---0-0-0--1-1-1-1-1-1-1----:
:---------0-----0-------0--0------2------------|-0-0-0--------2-0-0-2/4-2-0-0--0-0-0-0-0-0-0----:
:---------2-------------3--3------3------------|-3-2-0-------------------------3-------3-2-0----:
:-----------------------3---------3------------|-------1~--2-------------------3-------------1~-:
:----------------------------------------------|-----------3------------------------------------:

:-----------------------------------|-----------------------------------------------------------:
:-------0---------0-1-0------1-1-1--|-1-1-1----------0---0---1--1--1---1--1--1----------0---0---:
:---------0-------0-0-0------0-0-0--|-0-0-0----------0h2-0---0--0--0---0--0--0----------0h2-0---:
:-----0------2-2-------------3------|-3-2-0------------------2---------3------------------------:
:-----------------------------------|----------2-----------------------3--------------2---------:
:--3-3--------------------1-1-------|----------3--------------------------------------3---------:

:-----------------------------------------------------------------------------------------------:
:-1--1--1------------1---1---1----------------0---0-0---0-----0---------0---0--1--1---1---------:
:-0--0--0------------0---0---0----------------0h2-0-0---2/4-----2-0-----0h2-0--0--0h2-0---------:
:-2------------------3---------------------------------------------------------3----------------:
:--------------------3---------------2--------------------------------2--------3----------------:
:------------------------------------3--------------------------------3-------------------------:

:-----------------------------------------------------------------------------------------------:
:--1--1---1----0---0--------1---1---1----------0-------0---0-0-0-0---0-0-0-0---0-0-0-0---0-0-0--:
:--0--0h2-0----0h2-0--------0---0h2-0----------0-------2/4-2-0-0-2/4-2-0-0-2/4-2-0-0-2/4-2-0-0--:
:--2------------------------3---------------1---------------------------------------------------:
:-----------2---------------3-------------------------------------------------------------------:
:-----------3-----------------------------------------------------------------------------------:

   radio___________________________  dans les journeaux______________    ils parlaient d'un pays 
:----------------------------------------------------------------------|------------------------:
:-----1--1-----1--1----0---0-0-0-0---0-0-0---1--1----1--1----0---0-0-0-|-0------0----0----0-----:
:-----0----0---0----0--2/4-2-0-0-2/4-2-0-0---0----0--0----0--2/4-2-0-0-|-2/4----2----0----0-----:
:-----2--------3-----------------------------2-------3-----------------|------------------------:
:--------------3-------------------------------------3-----------------|------------------------:
:----------------------------------------------------------------------|------------------------:

:----------------------------------------------------------|------------------------------------:
:-1--1---1-----1------1---1------------0------0----0----0--|--0------0----0----0----------------:
:-0--0h2-0-----0------0h2-0------------2/4----2----0----0--|--2/4----2----0----0----------------:
:-3------------3-------------------------------------------|------------------------------------:
:-3------------3-------------------------------------------|------------------------------------:
:-1------------1-------------------------------------------|------------------------------------:

:----------------------------------------|------------------------------------------------------:
:-1-----1-------1----1------0---0-0-0----|--0---0-0-0----------1-----1-------1------------------:
:-0-----0-------0----0------2/4-2-0-0----|--2/4-2-0-0----------0---0-----0---0------------------:
:-2-------------3------------------------|---------------------2---------2---3------------------:
:---------------3------------------------|------------------------------------------------------:
:----------------------------------------|------------------------------------------------------:

:-----------------------------------------------------------------------------------------------:
:-------------------------------1----------------1--------------1------------1--------0-0-0-0---:
:----------------------------4----4----------4------4-------4-------4-----4-----4-----2-0-0-2/4-:
:-x--x----x-x-x---x---------------0-----------------0-------2-------------2---------------------:
:-x--x----x-x-x---x-------------------------------------0--------------0------------------------:
:-x--x----x-x-x---x------3---------------3-3----------------------------------------3-----------:

:-----------------------------------------------------------------------------------------------:
:--0-0----0-0-0-0---0-0-0--------1---------1---------0-0-0-1-0-0-----0-0-0----0-0---------------:
:--0-0----2-0-0-2/4-2-0-0------4---4----4-----4------2-0-0-2-0-0-----2-0-0----0-0---------------:
:------------------------------2--------2------------------3----------------1-------------------:
:--------------------------0----------0---------------------------------------------------------:
:-------3----------------------------------------3----------------3----------------3------------:

:-----------------------------------------------------------------------------------------------:
:--1-------------1-------------0----0----0----0-0-0---0--------1--1-----------------------------:
:--0-----------0-----------0---2/4--2/4--4\2--2-0-2---0--------0--0-----------------------------:
:--3---------3-------0-h-2--------------------------------2h3-----2-----------------------------:
:-----------------------------------------------------------------------------------------------:
:-----------------------------------------------------------------------------------------------:

Laisser un commentaire

Votre adresse de messagerie ne sera pas publiée.

Time limit is exhausted. Please reload CAPTCHA.

Liens commerciaux

Archives

Lien commerciaux

Copyright © 2017 Guitare pour Débutant

En poursuivant votre navigation sur ce site, vous acceptez l'utilisation de cookies ou autres traceurs pour vous proposer des publicités ciblées, adaptées à vos centres d'intérêts, améliorer le fonctionnement du site et réaliser des statistiques de visites. Pour en savoir plus et paramétrer les cookies, cliquez ici. Plus d'info

Les paramètres des cookies sur ce site sont définis sur « accepter les cookies » pour vous offrir la meilleure expérience de navigation possible. Si vous continuez à utiliser ce site sans changer vos paramètres de cookies ou si vous cliquez sur "Accepter" ci-dessous, vous consentez à cela.

Fermer