Têtes Raides – Je chante

Share Button

Têtes Raides – Je chante

Toutes les tablatures sont ici  http://guitarepourdebutant.fr/tablatures-faciles/

 

E||------------------------||-----------------------|----------------------|
B||--------3----3----3-----||--------3----3----3----|-------2----2----2----|
G||*-------4----4----4----*||*-------4----4----4----|-------2----2----2----|
D||*-------4----4----4----*||*-------4----4----4----|-------2----2----2----|
A||---2--------------------||---2-------------------|--0-------------------|
E||------------------------||-----------------------|----------------------|

  G                      F#                     Bm                   
----------------------|----------------------|----------------------|
----------------------|----------------------|-------3----3----3----|
-------4----4----4----|-------3----3----3----|-------4----4----4----|
-------5----5----5----|-------4----4----4----|-------4----4----4----|
-------5----5----5----|-------4----4----4----|--2-------------------|
--3-------------------|--2-------------------|----------------------|

  A                      G                      G                    
----------------------|----------------------|----------------------|
-------2----2----2----|----------------------|----------------------|
-------2----2----2----|-------4----4----4----|-------4----4----4----|
-------2----2----2----|-------5----5----5----|-------5----5----5----|
--0-------------------|-------5----5----5----|-------5----5----5----|
----------------------|--3-------------------|--3-------------------|

  A                      A                      F#                   
----------------------|----------------------|----------------------|
-------2----2----2----|-------2----2----2----|----------------------|
-------2----2----2----|-------2----2----2----|-------3----3----3----|
-------2----2----2----|-------2----2----2----|-------4----4----4----|
--0-------------------|--0-------------------|-------4----4----4----|
----------------------|----------------------|--2-------------------|

  F#                     Bm                     Bm                   4x
----------------------|----------------------|-----------------------||
----------------------|-------3----3----3----|-------3----3----3-----||
-------3----3----3----|-------4----4----4----|-------4----4----4----*||
-------4----4----4----|-------4----4----4----|-------4----4----4----*||
-------4----4----4----|--2-------------------|--2--------------------||
--2-------------------|----------------------|-----------------------||

  Bm                     A                      G                    
----------------------|----------------------|----------------------|
-------3----3----3----|-------2----2----2----|----------------------|
-------4----4----4----|-------2----2----2----|-------4----4----4----|
-------4----4----4----|-------2----2----2----|-------5----5----5----|
--2-------------------|--0-------------------|-------5----5----5----|
----------------------|----------------------|--3-------------------|

  F#                     Bm                     A                    
----------------------|----------------------|----------------------|
----------------------|-------3----3----3----|-------2----2----2----|
-------3----3----3----|-------4----4----4----|-------2----2----2----|
-------4----4----4----|-------4----4----4----|-------2----2----2----|
-------4----4----4----|--2-------------------|--0-------------------|
--2-------------------|----------------------|----------------------|

  Bm                     A                      G                    
----------------------|----------------------|----------------------|
-------3----3----3----|-------2----2----2----|----------------------|
-------4----4----4----|-------2----2----2----|-------4----4----4----|
-------4----4----4----|-------2----2----2----|-------5----5----5----|
--2-------------------|--0-------------------|-------5----5----5----|
----------------------|----------------------|--3-------------------|

  G                      F#                     F#                   
----------------------|----------------------|----------------------|
----------------------|----------------------|----------------------|
-------4----4----4----|-------3----3----3----|-------3----3----3----|
-------5----5----5----|-------4----4----4----|-------4----4----4----|
-------5----5----5----|-------4----4----4----|-------4----4----4----|
--3-------------------|--2-------------------|--2-------------------|

  Bm                     Bm                     F#                   
----------------------|----------------------|----------------------|
-------3----3----3----|-------3----3----3----|----------------------|
-------4----4----4----|-------4----4----4----|-------3----3----3----|
-------4----4----4----|-------4----4----4----|-------4----4----4----|
--2-------------------|--2-------------------|-------4----4----4----|
----------------------|----------------------|--2-------------------|

  F#                     Bm                 
----------------------|--2----------------||
----------------------|--3----------------||
-------3----3----3----|--4----------------||
-------4----4----4----|--4----------------||
-------4----4----4----|--2----------------||
--2-------------------|-------------------||